Oops, an error
Loading. Please wait.
We have an official Yellow tab made by UG professional guitarists. Check out the tab »
×

Yellow bass

7,886 views 6 this week
1 commentread comment
1 2 3 4 5
x 7
add to favorites
×
Save as Personal and add changes to this tab that will be seen only by you. Learn more ›
×
You can save this tab as Personal to edit and correct it or add notes. All changes will be seen only by you. Learn more »
launch autoscroll
font size
0
reset
guitar tuner
backing track
0:00
0:00
edit
Autoscroll
slow
fast
+/-
esc
set tempo
stop
Difficulty
Intro 

G |----------------|----------------|----------------|----------------|
D |----------------|----------------|----------------|----------------|
A |----------------|----------------|----------------|----------------|
E |----------------|----------------|----------------|----------------|

G |----------------|----------------|----------------|----------------|
D |----------------|----------------|----------------|----------------|
A |----------------|----------------|----------------|----------------|
E |7-7-7-7-7-7-7-7-|7-7-7-7-7-7-7-7-|2-2-2-2-2-2-2-2-|2-2-2-2-2-2-2-2-|

G |----------------|----------------|----------------|----------------||
D |----------------|----------------|----------------|----------------||
A |----------------|----------------|----------------|----------------||
E |0-0-0-0-0-0-0-0-|0-0-0-0-0-0-0-0-|7-7-7-7-7-7-7-7-|7-7-7-7-7-7-7-7-||


Verse 1 

G |----------------|----------------|----------------|----------------|
D |----------------|----------------|----------------|----------------|
A |----------------|----------------|----------------|----------------|
E |7-7-7-7-7-7-7-7-|7-7-7-7-7-7-7-7-|2-2-2-2-2-2-2-2-|2-2-2-2-2-2-2-2-|

G |----------------|----------------||----------------|----------------|
D |----------------|----------------||----------------|----------------|
A |----------------|----------------||----------------|----------------|
E |0-0-0-0-0-0-0-0-|0-0-0-0-0-0-0-0-||7-7-7-7-7-7-7-7-|7-7-7-7-7-7-7-7-|

G |----------------|----------------|----------------|----------------|
D |----------------|----------------|----------------|----------------|
A |----------------|----------------|----------------|----------------|
E |2-2-2-2-2-2-2-2-|2-2-2-2-2-2-2-2-|0-0-0-0-0-0-0-0-|0-0-0-0-0-0-0-0-|

G |----------------|----------------|----------------|----------------|
D |----------------|----------------|----------------|----------------|
A |----------------|----------------|----------------|----------------|
E |7-7-7-7-7-7-7-7-|7-7-7-7-7-7-7-7-|2-2-2-2-2-2-2-2-|2-2-2-2-2-2-2-2-|

G |----------------|----------------|----------------|----------------||
D |----------------|----------------|----------------|----------------||
A |----------------|----------------|----------------|----------------||
E |0-0-0-0-0-0-0-0-|0-0-0-0-0-0-0-0-|7-7-7-7-7-7-7-7-|7-7-7-7-7-7-7-7-||


Chorus

G |----------------|----------------|----------------|----------------|
D |----------------|----------------|----------------|----------------|
A |----------------|----------------|----------------|----------------|
E |0-0-0-2-2---7---|4---4-2---2-2-2-|0-0-0-2-2---7---|4---4-2---2-2-2-|

G |----------------|----------------|----------------|----------------|
D |----------------|----------------|----------------|----------------|
A |----------------|----------------|----------------|----------------|
E |0-0-0-2-2---7---|4---4-2---2-2-2-|0~--------------|----------------|

G |----------------|----------------|----------------|----------------|
D |----------------|----------------|----------------|----------------|
A |----------------|----------------|----------------|----------------|
E |7-7-7-7-7-7-7-7-|7-7-7-7-7-7-7-7-|2-2-2-2-2-2-2-2-|2-2-2-2-2-2-2-2-|

G |----------------|----------------|----------------|----------------||
D |----------------|----------------|----------------|----------------||
A |----------------|----------------|----------------|----------------||
E |0-0-0-0-0-0-0-0-|0-0-0-0-0-0-0-0-|7-7-7-7-7-7-7-7-|7-7-7-7-7-7-7-7-||


Verse 2 

G |----------------|----------------|----------------|----------------|
D |----------------|----------------|----------------|----------------|
A |----------------|----------------|----------------|----------------|
E |7-7-7-7-7-7-7-7-|7-7-7-7-7-7-7-7-|2-2-2-2-2-2-2-2-|2-2-2-2-2-2-2-2-|

G |----------------|----------------|----------------|----------------|
D |----------------|----------------|----------------|----------------|
A |----------------|----------------|----------------|----------------|
E |0-0-0-0-0-0-0-0-|0-0-0-0-0-0-0-0-|7-7-7-7-7-7-7-7-|7-7-7-7-7-7-7-7-|

G |----------------|----------------|----------------|----------------|
D |----------------|----------------|----------------|----------------|
A |----------------|----------------|----------------|----------------|
E |2-2-2-2-2-2-2-2-|2-2-2-2-2-2-2-2-|0-0-0-0-0-0-0-0-|0-0-0-0-0-0-0-0-|

G |----------------|----------------||
D |----------------|----------------||
A |----------------|----------------||
E |7-7-7-7-7-7-7-7-|7-7-7-7-7-7-7-7-||


Chorus

G |----------------|----------------|----------------|----------------|
D |----------------|----------------|----------------|----------------|
A |----------------|----------------|----------------|----------------|
E |0-0-0-2-2---7---|4---4-2---2-2-2-|0-0-0-2-2---7---|4---4-2---2-2-2-|

G |----------------|----------------|----------------|----------------|
D |----------------|----------------|----------------|----------------|
A |----------------|----------------|----------------|----------------|
E |0-0-0-2-2---7---|4---4-2---2-2-2-|0~--------------|----------------|

G |----------------|----------------|----------------|----------------|
D |----------------|----------------|----------------|----------------|
A |----------------|----------------|----------------|----------------|
E |7-7-7-7-7-7-7-7-|7-7-7-7-7-7-7-7-|2-2-2-2-2-2-2-2-|2-2-2-2-2-2-2-2-|

G |----------------|----------------|----------------|----------------||
D |----------------|----------------|----------------|----------------||
A |----------------|----------------|----------------|----------------||
E |0-0-0-0-0-0-0-0-|0-0-0-0-0-0-0-0-|7-7-7-7-7-7-7-7-|7-7-7-7-7-7-7-7-||


Bridge 

G |----------------|----------------|----------------|----------------|
D |----------------|----------------|----------------|----------------|
A |----------------|----------------|----------------|----------------|
E |7-7-7-7-7-7-7-7-|7-7-7-7-7-7-7-7-|2-2-2-2-2-2-2-2-|2-2-2-2-2-2-2-2-|

G |----------------|----------------|----------------|----------------|
D |----------------|----------------|----------------|----------------|
A |----------------|----------------|----------------|----------------|
E |0-0-0-0-0-0-0-0-|0-0-0-0-0-0-0-0-|7-7-7-7-7-7-7-7-|7-7-7-7-7-7-7-7-|

G |----------------|----------------|----------------|----------------||
D |----------------|----------------|----------------|----------------||
A |----------------|----------------|----------------|----------------||
E |2-2-2-2-2-2-2-2-|2-2-2-2-2-2-2-2-|0-0-0-0-0-0-0-0-|0-0-0-0-0-0-0-0-||


Outro

G |----------------|----------------|----------------|----------------|
D |----------------|----------------|----------------|----------------|
A |----------------|----------------|----------------|----------------|
E |7~--------------|----------------|----------------|----------------|

G |----------------||
D |----------------||
A |----------------||
E |----------------||

            
            
Suggest correction
Creating personal tab
Creating personal tab
You can edit any tab online and save it as your Personal.

You can edit, replace or remove any tab part or add personal notes – all changes will be seen only by you.

Personal tabs can be accessed anytime from any device, even offline.
Learn more »
comments
print report bad tab
1 comment total.
0 reply
NightzCoyote 10 Dec 08, 2014 08:27 PM

great tab! only thing i did different was on the very last note at the very end where its E 7~ I played an A 7~ sounded better to me, but thats just me :p

guest
Wanna post a correction for this tab? Suggest correction