Oops, an error
Loading. Please wait.

Middle Of A Memory tab

version 1
version 1

Whole song

8,455 views 72 this week
4 commentsread comments
1 2 3 4 5
x 11
add to favorites
×
Save as Personal and add changes to this tab that will be seen only by you. Learn more ›
×
You can save this tab as Personal to edit and correct it or add notes. All changes will be seen only by you. Learn more »
launch autoscroll
font size
0
reset
how to read this tab
guitar tuner
edit
Autoscroll
slow
fast
+/-
esc
set tempo
stop
[Intro]

e|--------------------------|--------------|--------------------|----------------|
B|--------------------------|--------------|--------------------|-----------3----|
G|--------0----2h4---4p2-0--|------0----0--|-----------0---0----|------0----0----|
D|-------------0------------|-----0-----2--|-------4--------4---|---0h2----------|
A|--------------------------|--------------|---5--5---5---5--5--|--3------3------|
E|----3------3--------------|--0------0----|--------------------|----------------|


[Verse]

For the verse the guitar plays sparser versions of the introduction.

e|------------------|----------------|---------------|----------------|
B|------------------|----------------|---------------|----------------|
G|--------0----0----|------0----0----|----------0----|------0----0----|
D|--------0----0----|-----0-----2----|------4--------|------2----2----|
A|------------------|----------------|--5--5---5-----|--3--3---3------|
E|----3------3------|--0------0------|---------------|----------------|

e|--------------------------|--------------|---------------|----------------|---------------|
B|--------------------------|--------------|---------------|----------------|---------------|
G|--------0----2h4---4p2-0--|------0----0--|----------0----|------0----0----|--0------------|
D|-------------0------------|-----0-----2--|------4--------|------2----2----|---------------|
A|--------------------------|--------------|--5--5---5-----|--3--3---3------|--3------------|
E|----3------3--------------|--0------0----|---------------|----------------|---------------|


[Chorus]

These are just strummed chords but I have written below the chords I could deduce in their inversions.

    Cadd9           G             D            Em7   D
e|----x--------|----x--------|----x--------|----x----x---|
B|----3--------|----3--------|----3--------|----3----3---|
G|----0--------|----0--------|----2--------|----0----2---|
D|----2--------|----0--------|----0--------|----2----0---|
A|----3--------|----2--------|----x--------|----2----x---|
E|----x--------|----3--------|----x--------|----0----x---|

    Cadd9           G             D             D   Em7
e|----x--------|----x--------|----x--------|----x----x---|
B|----3--------|----3--------|----3--------|----3----2---|
G|----0--------|----0--------|----2--------|----2----0---|
D|----2--------|----0--------|----0--------|----0----2---|
A|----3--------|----2--------|----x--------|----x----2---|
E|----x--------|----3--------|----x--------|----x----0---|

    Cadd9           G             D             Em7  D
e|----x--------|----x--------|----x--------|----x----x---|
B|----3--------|----3--------|----3--------|----3----3---|
G|----0--------|----0--------|----2--------|----0----2---|
D|----2--------|----0--------|----0--------|----2----0---|
A|----3--------|----2--------|----x--------|----2----x---|
E|----x--------|----3--------|----x--------|----0----x---|

    Cadd9           G             D             D  
e|----x--------|----x--------|----x--------|----x--------|
B|----3--------|----3--------|----3--------|----3--------|
G|----0--------|----0--------|----2--------|----2--------|
D|----2--------|----0--------|----0--------|----0--------|
A|----3--------|----2--------|----x--------|----x--------|
E|----x--------|----3--------|----x--------|----x--------|


[Pre-Verse]

e|-------------|-----------|---------------|
B|-------------|-----------|---------------|
G|--------0----|-----------|------0---0----|
D|-----0h2-----|------0----|------4---5----|
A|----3--------|---0h2-----|--5--5---5-----|
E|-------------|-----------|---------------|


[Verse]

e|------------------|----------------|---------------|----------------|
B|------------------|----------------|---------------|----------------|
G|--------0----0----|------0----0----|----------0----|------0----0----|
D|--------0----0----|-----0-----2----|------4--------|------2----2----|
A|------------------|----------------|--5--5---5-----|--3--3---3------|
E|----3------3------|--0------0------|---------------|----------------|

e|--------------------------|--------------|---------------|----------------|---------------|
B|--------------------------|--------------|---------------|----------------|---------------|
G|--------0----2h4---4p2-0--|------0----0--|----------0----|------0----0----|--0------------|
D|-------------0------------|-----0-----2--|------4--------|------2----2----|---------------|
A|--------------------------|--------------|--5--5---5-----|--3--3---3------|--3------------|
E|----3------3--------------|--0------0----|---------------|----------------|---------------|


[Chorus]

    Cadd9           G             D            Em7   D
e|----x--------|----x--------|----x--------|----x----x---|
B|----3--------|----3--------|----3--------|----3----3---|
G|----0--------|----0--------|----2--------|----0----2---|
D|----2--------|----0--------|----0--------|----2----0---|
A|----3--------|----2--------|----x--------|----2----x---|
E|----x--------|----3--------|----x--------|----0----x---|

    Cadd9           G             D             D   Em7
e|----x--------|----x--------|----x--------|----x----x---|
B|----3--------|----3--------|----3--------|----3----2---|
G|----0--------|----0--------|----2--------|----2----0---|
D|----2--------|----0--------|----0--------|----0----2---|
A|----3--------|----2--------|----x--------|----x----2---|
E|----x--------|----3--------|----x--------|----x----0---|

    Cadd9           G             D            Em7   D
e|----x--------|----x--------|----x--------|----x----x---|
B|----3--------|----3--------|----3--------|----3----3---|
G|----0--------|----0--------|----2--------|----0----2---|
D|----2--------|----0--------|----0--------|----2----0---|
A|----3--------|----2--------|----x--------|----2----x---|
E|----x--------|----3--------|----x--------|----0----x---|

    Cadd9           G             D             D  
e|----x--------|----x--------|----x--------|----x--------|
B|----3--------|----3--------|----3--------|----3--------|
G|----0--------|----0--------|----2--------|----2--------|
D|----2--------|----0--------|----0--------|----0--------|
A|----3--------|----2--------|----x--------|----x--------|
E|----x--------|----3--------|----x--------|----x--------|


[Bridge]

e|----x----|----x----|----x----|
B|----x----|----x----|----x----|
G|----0----|----0----|----2----|
D|----2----|----0----|----0----|
A|----3----|----2----|----x----|
E|----x----|----3----|----x----|


[Chorus]

    Cadd9           G             D            Em7   D
e|----x--------|----x--------|----x--------|----x----x---|
B|----3--------|----3--------|----3--------|----3----3---|
G|----0--------|----0--------|----2--------|----0----2---|
D|----2--------|----0--------|----0--------|----2----0---|
A|----3--------|----2--------|----x--------|----2----x---|
E|----x--------|----3--------|----x--------|----0----x---|

    Cadd9           G             D             D   Em7
e|----x--------|----x--------|----x--------|----x----x---|
B|----3--------|----3--------|----3--------|----3----2---|
G|----0--------|----0--------|----2--------|----2----0---|
D|----2--------|----0--------|----0--------|----0----2---|
A|----3--------|----2--------|----x--------|----x----2---|
E|----x--------|----3--------|----x--------|----x----0---|

    Cadd9           G             D            Em7   D
e|----x--------|----x--------|----x--------|----x----x---|
B|----3--------|----3--------|----3--------|----3----3---|
G|----0--------|----0--------|----2--------|----0----2---|
D|----2--------|----0--------|----0--------|----2----0---|
A|----3--------|----2--------|----x--------|----2----x---|
E|----x--------|----3--------|----x--------|----0----x---|

    Cadd9           G             D             D  
e|----x--------|----x--------|----x--------|----x--------|
B|----3--------|----3--------|----3--------|----3--------|
G|----0--------|----0--------|----2--------|----2--------|
D|----2--------|----0--------|----0--------|----0--------|
A|----3--------|----2--------|----x--------|----x--------|
E|----x--------|----3--------|----x--------|----x--------|


[Outro]

Let the last note ring out
e|--------------------------|--------------|--------------------|----------------|
B|--------------------------|--------------|--------------------|-----------3----|
G|--------0----2h4---4p2-0--|------0----0--|-----------0---0----|------0----0----|
D|-------------0------------|-----0-----2--|-------4--------4---|---0h2----------|
A|--------------------------|--------------|---5--5---5---5--5--|--3------3------|
E|----3------3--------------|--0------0----|--------------------|----------------|



************************************

| x  Dead note
| h  Hammer-on
| p  Pull-off

************************************

            
            
Suggest correction
Creating personal tab
Creating personal tab
You can edit any tab online and save it as your Personal.

You can edit, replace or remove any tab part or add personal notes – all changes will be seen only by you.

Personal tabs can be accessed anytime from any device, even offline.
Learn more »
comments
print report bad tab
4 comments total. Showing first comments.
+1 reply
clarke151 10 Aug 01, 2016 02:08 PM

no solo? :P

good tab

+1 reply
DominicBeach 53 Aug 02, 2016 12:36 PM

Good point, I might try hear it out, come back soon, I'll see what I can do!

+1 reply
mgwilson15 330 Sep 09, 2016 12:52 PM

Awesome tab! Only thing I've seen is the last bit of the intro and outro. You have open G and 2nd fret of the B string. It should be open G and 3rd fret B. Other than that, awesome job and thanks for taking the time to tab it out

guest
You may want to rate the tab now too:
select rating
Wanna post a correction for this tab? Suggest correction