Oops, an error
Loading. Please wait.

More Than Gravity tab

version 1
version 1

Whole song

  • This is a tab on how to play this song in standard... Show more
  • The D string is one step higher than in standard t... Show more
538 views 15 this week
no commentswrite comment
1 2 3 4 5
2 more votes to show rating
add to favorites
×
Save as Personal and add changes to this tab that will be seen only by you. Learn more ›
×
You can save this tab as Personal to edit and correct it or add notes. All changes will be seen only by you. Learn more »
launch autoscroll
font size
0
reset
how to read this tab
guitar tuner
edit
Autoscroll
slow
fast
+/-
esc
set tempo
stop
About this tab version
This is a tab on how to play this song in standard tuning. From what I reckon this should be played in open E, maybe later on I'll add another tab in the proper tuning. I have to say this does sound pretty similar to the original to me, hope you enjoy it. Was this info helpful? Yes No
[Intro]
e|-----0---0-----0---0-----0---0-----0---0-----0---0---0---0-----0---0---0---0-----|
B|-----0---0-----0---0-----0---0-----0---0-----0---0---0---0-----0---0---0---0-----|
G|---------------------------------------------------------------------------------|
D|-4p2---2---6p2---2---4p2---2---6p2---2---------2---4---2---------2---4---2-------|
A|-----------------------------------------2h4---------------2h4-------------------|
E|---------------------------------------------------------------------------------|

e|-----0---0-----0---0-----0---0-----0---0-|
B|-----0---0-----0---0-----0---0-----0---0-|
G|-----------------------------------------|
D|-4p2---2---6p2---2---4p2---2---6p2---2---|
A|-----------------------------------------|
E|-----------------------------------------|

(During the Verse just repeat the intro over and over)

[Verse]
e|-----0---0-----0---0-----0---0-----0---0-|
B|-----0---0-----0---0-----0---0-----0---0-|
G|-----------------------------------------|
D|-4p2---2---6p2---2---4p2---2---6p2---2---|
A|-----------------------------------------|
E|-----------------------------------------|

(Lyrics during the verse)

There's not a simple explaination for the things that I feel
There's no one word to tell you why i do the things i do

e|-----0---0---0---0-----0---0---0---0-----|
B|-----0---0---0---0-----0---0---0---0-----|
G|-----------------------------------------|
D|-------2---4---2---------2---4---2-------|
A|-2h4---------------2h4-------------------|
E|-----------------------------------------|

I don't need you, I just want you
I can't love you, I'm too scared to

[Chorus 1] 
     A             C#m      B           A             C#m      B
e|---0---0---0---0---0---0---0---0-|---0---0---0---0---0---0---0---0-----------|
B|---0---0---0---0---0---0---0---0-|---0---0---0---0---0---0---0---0-----------|
G|---------------------------------|-------------------------------------------|
D|---------------------------------|-------------------------------------------|
A|-0---0---0---0---4---4---2---2---|-0---0---0---0---4---4---2---2-------------|
E|---------------------------------|-------------------------------------------|

    A            C#m        B           A       B    (strum the last two chords)
e|---0---0---0---0---0---0---0---0-|---0-------2--------------------------------|
B|---0---0---0---0---0---0---0---0-|---2-------4--------------------------------|
G|---------------------------------|---2-------4--------------------------------|
D|---------------------------------|---2-------4--------------------------------|
A|-0---0---0---0---4---4---2---2---|---0-------2--------------------------------|
E|---------------------------------|--------------------------------------------|

[Verse]
e|-----0---0-----0---0-----0---0-----0---0-|
B|-----0---0-----0---0-----0---0-----0---0-|
G|-----------------------------------------|
D|-4p2---2---6p2---2---4p2---2---6p2---2---|
A|-----------------------------------------|
E|-----------------------------------------|

(Lyrics during the verse)

There's not a simple explaination for the things that I feel
There's no one word to tell you why i do the things i do

e|-----0---0---0---0-----0---0---0---0-----|
B|-----0---0---0---0-----0---0---0---0-----|
G|-----------------------------------------|
D|-------2---4---2---------2---4---2-------|
A|-2h4---------------2h4-------------------|
E|-----------------------------------------|

I don't need you, I just want you
I can't love you, I'm too scared to


[Chorus 2] 
     A             C#m      B           A             C#m      B
e|---0---0---0---0---0---0---0---0-|---0---0---0---0---0---0---0---0-----------|
B|---0---0---0---0---0---0---0---0-|---0---0---0---0---0---0---0---0-----------|
G|---------------------------------|-------------------------------------------|
D|---------------------------------|-------------------------------------------|
A|-0---0---0---0---4---4---2---2---|-0---0---0---0---4---4---2---2-------------|
E|---------------------------------|-------------------------------------------|

    A             C#m      B                          A                   
e|---0---0---0---0---0---0---0---0-|---0---0---0---0---0---0---0---0-----------|
B|---0---0---0---0---0---0---0---0-|---0---0---0---0---0---0---0---0-----------|
G|---------------------------------|-------------------------------------------|
D|---------------------------------|-------------------------------------------|
A|-0---0---0---0---4---4---2---2---|-0---0---0---0---0---0---0---0-------------|
E|---------------------------------|-------------------------------------------|
                                      
                 B                             C#m      
e|---0---0---0---0---0---0---0---0-|---0---0---0---0---0---0---0---0-----------|
B|---0---0---0---0---0---0---0---0-|---0---0---0---0---0---0---0---0-----------|
G|---------------------------------|-------------------------------------------|
D|---------------------------------|-------------------------------------------|
A|-2---2---2---2---2---2---2---2---|-4---4---4---4---4---4---4---4-------------|
E|---------------------------------|-------------------------------------------|

                B                     I tried to ignore it, tried to be strong
e|---0---0---0---0---0---0---0---0-|
B|---0---0---0---0---0---0---0---0-|
G|---------------------------------|
D|---------------------------------|
A|-2---2---2---2---2---2---2---2---|
E|---------------------------------|
 
I said I'd never feel what I felt that long

[Bridge]
(Then it's basically 1 strum per chord for the rest of the bridge)

A                         C#m            B
And now it's 2 am and I'm drunk and I'm calling you 
A                              C#m             B
And I can't fall asleep 'cause all I do is dream about you 
A                              C#m        B     
It's times like this you gotta face the truth 
A                  B                    
I think I need somebody, I think that's you 

[Chorus 1] 
     A             C#m      B           A             C#m      B
e|---0---0---0---0---0---0---0---0-|---0---0---0---0---0---0---0---0-----------|
B|---0---0---0---0---0---0---0---0-|---0---0---0---0---0---0---0---0-----------|
G|---------------------------------|-------------------------------------------|
D|---------------------------------|-------------------------------------------|
A|-0---0---0---0---4---4---2---2---|-0---0---0---0---4---4---2---2-------------|
E|---------------------------------|-------------------------------------------|

    A            C#m        B           A       B    (strum the last two chords)
e|---0---0---0---0---0---0---0---0-|---0-------2--------------------------------|
B|---0---0---0---0---0---0---0---0-|---2-------4--------------------------------|
G|---------------------------------|---2-------4--------------------------------|
D|---------------------------------|---2-------4--------------------------------|
A|-0---0---0---0---4---4---2---2---|---0-------2--------------------------------|
E|---------------------------------|--------------------------------------------|


************************************

| x   Dead note
| g   Grace note
| (n) Ghost note
| h   Hammer-on
| p   Pull-off
| r   Release
| >   Accented note
| t   Tapping
| b   Bend
| br  Bend release
| pb  Pre-bend
| pbr Pre-bend release
| /   Slide up
| \   Slide down
| ~   Vibrato
| s   Slap
| P   Pop
| PM  Palm mute
| TR  Trill
| N   Tremolo

************************************

            
            
Suggest correction
Creating personal tab
Creating personal tab
You can edit any tab online and save it as your Personal.

You can edit, replace or remove any tab part or add personal notes – all changes will be seen only by you.

Personal tabs can be accessed anytime from any device, even offline.
Learn more »
Give kudos to tab author, rate the tab!
1 2 3 4 5
comments
print report bad tab
guest
You may want to rate the tab now too:
select rating
Wanna post a correction for this tab? Suggest correction