Oops, an error
Loading. Please wait.

Scattered In The Sand chords

version 1
version 1

Whole song

  • I added a tab of the most common riff with slight variations.
  • By request - Colin Hay live at NYC City Winery playing Scattered in the Sand.
49 views 3 this week
no commentswrite comment
1 2 3 4 5
3 more votes to show rating
add to favorites
×
Save as Personal and add changes to this tab that will be seen only by you. Learn more ›
×
You can save this tab as Personal to edit and correct it or add notes. All changes will be seen only by you. Learn more »
launch autoscroll
font size
0
reset
transpose
0
reset
display chords
guitar tuner
edit
Autoscroll
slow
fast
+/-
esc
set tempo
stop
About this tab version
I added a tab of the most common riff with slight variations. Was this info helpful? Yes No
Strumming
There is no strumming pattern for this song yet. and get +5 IQ
“Scattered in the Sand”

[Intro]
A D G A 2x

[Verse]
Em                  C      D
Somewhere along the river bend
Em             C     G
Maybe we will meet again
Em                              C    D       Em D C A# A
Things we thought were there at our command

[Chorus]
                    A D G A
Scattered in the sand,
                    A D G A
scattered in the sand

e|--0-2-3-2-0----------------------------|
B|--------------3-2h3-5------------------|
G|-----------------------2-----------6b--|
D|-------------------------4h5-4h5-------|
A|---------------------------------------|
E|---------------------------------------|

[Verse]
Em                 C        D
I saw the house on Minerva Lane
Em                     C          G
The gate was shut with lock and chain
Em               C         D     Em D C A# A
Memories of what once was grand

[Chrous]
                   A D G A
Scattered in the sand,
                   A D G A
scattered in the sand

e|--0-2-3-2-0----------------------------|
B|--------------3-2h3-5------------------|
G|-----------------------2-----------6b--|
D|-------------------------4h5-4h5-------|
A|---------------------------------------|
E|---------------------------------------|

[Bridge]
A             D               G           A
I watched you sleeping as you drifted away
A              D         F                 A
Love’s for the keeping I still hear you say
A         D      G        A
I saw you in my flying dreams
A        D          F                A
On the bridge from here to there it seems
A     D            G            A
Only then I spread your ashes where
Em    D      C       A#     A
The ocean meets the land

[Chorus]
                   A D G A
Scattered in the sand,
                   A D G A
scattered in the sand

e|--0-2-3-2-0-----------------------------|
B|--------------3-2h3-5-------------------|
G|-----------------------2-----------2-2--|
D|-------------------------4h5-4h5--------|
A|----------------------------------------|
E|----------------------------------------|

[Outro]
A             D               G         A
I watched you sleeping as you drifted away
A              D         F              A
Love’s for the keeping I still hear you say

A             D               G        A
I watched you sleeping as you drifted away
A              D       A D G A 2x
Love’s for the keeping

e|--0-2-3-2-0-----------------------------|
B|--------------3-2h3-5-------------------|
G|-----------------------2-----------7p6--|
D|-------------------------4h5-4h5--------|
A|----------------------------------------|
E|----------------------------------------|

************************************

| h   Hammer-on
| p   Pull-off
| b   Bend

************************************

            
            
Suggest correction
Creating personal tab
Creating personal tab
You can edit any tab online and save it as your Personal.

You can edit, replace or remove any tab part or add personal notes – all changes will be seen only by you.

Personal tabs can be accessed anytime from any device, even offline.
Learn more »
Give kudos to tab author, rate the tab!
1 2 3 4 5
comments
print report bad tab
guest
You may want to rate the tab now too:
select rating
Wanna post a correction for this tab? Suggest correction