Oops, an error
Loading. Please wait.

Goodmorning After All tab

436 views 1 this week
no commentswrite comment
1 2 3 4 5
3 more votes to show rating
add to favorites
×
Save as Personal and add changes to this tab that will be seen only by you. Learn more ›
×
You can save this tab as Personal to edit and correct it or add notes. All changes will be seen only by you. Learn more »
launch autoscroll
font size
0
reset
how to read this tab
guitar tuner
edit
Autoscroll
slow
fast
+/-
esc
set tempo
stop
Author
Goodmorning After All
Rhythm Guitar

Intro and Chorus:
e|----------------------------------|
B|----------------------------------|
G|-6-------------------6------------|
D|-6------8------4-----6------------|
A|-4(x8)--8------4-----4(x8)--------|
E|--------6(x8)--2(x8)--------------|X2

Verse 1
e|----------------------------------|
B|----------------------------------|
G|-4-------------6------------------|
D|-4------4------6------------------|
A|-2(x8)--4------4(x16)-------------|
E|--------2(x8)---------------------|X2

Pre Chorus is just:
e|----------------------------------|
B|----------------------------------|
G|-4-----6--------------------------|
D|-4-----6--------------------------|
A|-2(x8--4(x8)----------------------|
E|----------------------------------|

Then Chorus (same as intro) play 4x

Then Verse 2 (same as verse 1)

Pre Chorus

Chorus 

Bridge (right after chorus):
e|----------------------------------|
B|----------------------------------|
G|---------------6------------------|
D|-8------4------6------------------|
A|-8------4------4------------------|
E|-6(x8)--2(x8)---(x8)--------------|X2 (the 2nd time don't play the 466 and go 

straight to below

then
e|----------------------------------|
B|----------------------------------|
G|-8~------6~-----------------------|
D|-8~--4~--6~-----------------------|
A|-6~--4~--4~-----------------------|
E|-----2~---------------------------|

Then just play Intro/Chorus riff until the song ends.

Enjoy and add commments if something is off:-)

            
            
Suggest correction
Creating personal tab
Creating personal tab
You can edit any tab online and save it as your Personal.

You can edit, replace or remove any tab part or add personal notes – all changes will be seen only by you.

Personal tabs can be accessed anytime from any device, even offline.
Learn more »
Give kudos to tab author, rate the tab!
1 2 3 4 5
comments
print report bad tab
guest
You may want to rate the tab now too:
select rating
Wanna post a correction for this tab? Suggest correction