Oops, an error
Loading. Please wait.

Him tab

version 1
version 1

Whole song

2,018 views 1 this week
5 commentsread comments
1 2 3 4 5
x 3
add to favorites
×
Save as Personal and add changes to this tab that will be seen only by you. Learn more ›
×
You can save this tab as Personal to edit and correct it or add notes. All changes will be seen only by you. Learn more »
launch autoscroll
font size
0
reset
how to read this tab
guitar tuner
edit
Autoscroll
slow
fast
+/-
esc
set tempo
stop
Author
Difficulty
Riff one is played throughout this whole song, nonstop. Riff 2 is played
between verses (I indicated where in the lyrics). Enjoy! Rate please!

b = bend
r = let ring
~ = vibrato

Riff 1

1/---------------------------------------------|
2/---------------------------------------------|
3/---------------0--------------0---------0----|
4/---------------------------------------------|
5/-----2----3---------2------------------------|
6/-------------------------3---------3---------|

Riff 2

1/-------------------------------------------------------------------------|
2/-------------------------------------------------------------------------|
3/--12--12b--12--10r----12--12b--12--10r----12--12b--12--10r---7-----------|
4/-----------------------------------------------------------------10~~----|
5/-------------------------------------------------------------------------|
6/-------------------------------------------------------------------------|

            
            
Suggest correction
Creating personal tab
Creating personal tab
You can edit any tab online and save it as your Personal.

You can edit, replace or remove any tab part or add personal notes – all changes will be seen only by you.

Personal tabs can be accessed anytime from any device, even offline.
Learn more »
Give kudos to tab author, rate the tab!
1 2 3 4 5
comments
print report bad tab
5 comments total. Showing first comments.
0 reply
ChiSoxn2k5 10 Apr 06, 2006 02:37 PM

hey thx alot man i have been waiting for this tab! nicely done

0 reply
blur819 1,341 Jun 21, 2009 01:52 PM

So uh... I presume you tune down a full step? (I hope)... then Riff 1 is correct.

Riff 2 moves up a full step (it would be correct in standard tuning).

Thanks...

0 reply
chaosdivine 10 Mar 08, 2012 11:07 AM

Correct Main Riff: (Standard Tuning)

e------------------------|
B------------------------|
G------------------------|
D---3---3-3---3---3-3----|
A--1---------1-----------|
E-1--0h1-1--1--0h1-1-----|

guest
You may want to rate the tab now too:
select rating
Wanna post a correction for this tab? Suggest correction