Oops, an error
Loading. Please wait.

Reza bass

46 views 1 this week
no commentswrite comment
1 2 3 4 5
3 more votes to show rating
add to favorites
×
Save as Personal and add changes to this tab that will be seen only by you. Learn more ›
×
You can save this tab as Personal to edit and correct it or add notes. All changes will be seen only by you. Learn more »
launch autoscroll
font size
0
reset
guitar tuner
edit
Autoscroll
slow
fast
+/-
esc
set tempo
stop
Gtr I (B E A D G C)

    Moderately Q=109
   4/4
    Gtr I
    E E E  E   +E    Q.     E  E  E  E   +E    E   +E    E  11x
||--------<4>-(<4>)-------|----------------------------------||
||o-----------------<4>---|-------------------<5>-(<5>)-----o||
||------------------------|---------<5>-(<5>)-----------<4>--||
||----2-------------------|---<4>----------------------------||
||o-----------------------|-3-----3-------------------------o||
||--0---0-----------------|----------------------------------||


  E E E  E   +E    Q.     W
|-------<4>-(<4>)-------|------|
|-----------------<4>---|------|
|-----------------------|------|
|---2-------------------|------|
|-----------------------|-5----|
|-0---0-----------------|------|


  W          W          W          W
|----------|----------|----------|------|
|----------|----------|----------|------|
|----------|----------|----------|------|
|----------|----------|----------|------|
|-7--------|-3--------|-2--------|-0----|
|----------|----------|----------|------|


  W          W          W          W
|----------|----------|----------|------|
|----------|----------|----------|------|
|----------|----------|----------|------|
|----------|----------|----------|------|
|-7--------|-3--------|-2--------|-0----|
|----------|----------|----------|------|


  W          W          W          W
|----------|----------|----------|------|
|----------|----------|----------|------|
|----------|----------|----------|------|
|----------|----------|----------|------|
|----------|----------|-3--------|-5----|
|-3--------|-5--------|----------|------|


  W          W          W          H.      +E  E
|----------|----------|----------|-----------------|
|----------|----------|----------|-----------------|
|----------|----------|----------|-----------------|
|----------|----------|----------|-----------------|
|----------|-3--------|----------|-3-------(3)-5---|
|-3--------|----------|-3--------|-----------------|


  W          W          W          W
|----------|----------|----------|------|
|----------|----------|----------|------|
|----------|----------|----------|------|
|----------|----------|----------|------|
|-7--------|-5--------|-3--------|------|
|----------|----------|----------|-5----|


    E E E  E   +E    Q.     E  E  E  E   +E    E   +E    E   3x
||--------<4>-(<4>)-------|----------------------------------||
||o-----------------<4>---|-------------------<5>-(<5>)-----o||
||------------------------|---------<5>-(<5>)-----------<4>--||
||----2-------------------|---<4>----------------------------||
||o-----------------------|-3-----3-------------------------o||
||--0---0-----------------|----------------------------------||


  E E E  E   +E    Q.     W
|-------<4>-(<4>)-------|------|
|-----------------<4>---|------|
|-----------------------|------|
|---2-------------------|------|
|-----------------------|-5----|
|-0---0-----------------|------|


  H.      +E  E    W          W          W
|----------------|----------|----------|------|
|----------------|----------|----------|------|
|----------------|----------|----------|------|
|----------------|----------|----------|------|
|----------------|----------|----------|-3----|
|-5-------(5)-5\-|-1--------|-0--------|------|


  W          W          W          W
|----------|----------|----------|------|
|----------|----------|----------|------|
|----------|----------|----------|------|
|----------|----------|----------|------|
|----------|-5--------|-3--------|------|
|-1--------|----------|----------|-5----|


    E E E E E E E E   +E  E E E E E Q    Q  E E E S S E E   +E  E +E  E E E Q
||------------------|------------------|------------------|--------------------|
||o-----------------|------------------|------------------|--------------------|
||------------------|---------7-----9--|------------------|--------------------|
||------------------|-----------9------|------------------|--------------------|
||o-7-7-7-7-7-5-5-7-|-(7)-7-7-----7----|-3--3-2-3-2-2-2-3-|-(3)-3-(3)-3-3-7-5--|
||------------------|------------------|------------------|--------------------|


  Q  E E E S S E E   +E  E +E  E E E E E   Q.   E Q.   E   +Q.   E H
|------------------|---------------------|---------------|---------------||
|------------------|---------------------|---------------|--------------o||
|------------------|---------------------|---------------|---------------||
|------------------|-------------------2-|-3----3-3----3-|-(3)---3-0-----||
|------------------|---------------2-3---|---------------|--------------o||
|-5--5-3-5-3-3-3-5-|-(5)-5-(5)-5-5-------|---------------|---------------||


  H    H      H    H      H    H      H    H
|-----------|-----------|-----------|-----------|
|-----------|-----------|-----------|-----------|
|-----------|-----------|-----------|-----------|
|-----------|-----------|-----------|-----------|
|-----------|-----------|-3----3----|-5----5----|
|-3----3----|-5----5----|-----------|-----------|


  W          W          W          H.     +E  S S
|----------|----------|----------|------------------|
|----------|----------|----------|------------------|
|----------|----------|----------|------------------|
|----------|----------|----------|------------0-0---|
|----------|-3--------|----------|-3------(3)-------|
|-3--------|----------|-3--------|------------------|


  W          H.     +E  S S     W        H.      +E  S S
|----------|----------------|----------|------------------|
|----------|----------------|----------|------------------|
|----------|----------------|----------|------------------|
|-2--------|-0------(0)-5-5-|----------|-7-------(7)------|
|----------|----------------|---3------|-------------0-0--|
|----------|----------------|----------|------------------|


  E E E E E E E E   E E E E E E E E   E E E E E E E E   E E E E E E E E
|-----------------|-----------------|-----------------|-------------------|
|-----------------|-----------------|-----------------|-------------------|
|-----------------|-----------------|-----------------|-------------------|
|-----------------|-----------------|-----------------|-------------------|
|-3-3-3-3-3-3-3-3-|-3-3-3-3-3-3-3-3-|-5-5-5-5-5-5-5-5-|-5-5-5-5-5-5-5-5---|
|-----------------|-----------------|-----------------|-------------------|


  E E E E E E E E   E E E E E E E E   E E E E E E E E   E E E E E E E E
|-----------------|-----------------|-----------------|-------------------|
|-----------------|-----------------|-----------------|-------------------|
|-----------------|-----------------|-----------------|-------------------|
|-----------------|-----------------|-----------------|-------------------|
|-7-7-7-7-7-7-7-7-|-7-7-7-7-7-7-7-7-|-9-9-9-9-9-9-9-9-|-9-9-9-9-9-9-9-9---|
|-----------------|-----------------|-----------------|-------------------|


 7/8             2/4       5/8        7/8
  E E E E E E E   E E E E   Q  E E E   E E E E E E E
|---------------|---------|----------|----------------|
|---------------|---------|----------|----------------|
|---------------|---------|----------|----------------|
|-2---2---2---0-|-2---2---|-2--0-2-2-|----------------|
|---2-----------|---------|----------|----------------|
|---------------|---------|----------|-3-5-5---5-3-3--|


 6/4                       5/8          7/8
  E E E E E E E E E E E E   E E E E E    E E E E E S S E
|-------------------------|------------|--------------------|
|-------------------------|------------|--------------------|
|-------------------------|------------|--------------------|
|-------------------------|------------|--------------------|
|-------------------------|------------|-5-3-5---5-3-3-3----|
|-5---5---3---3---5---5---|-6---6-6----|--------------------|


 2/4       5/8         7/4
  Q    Q    Q   E E E   E E E E E E E E E E E E E E
|---------|-----------|--------------------------------|
|---------|-----------|--------------------------------|
|---------|-----------|--------------------------------|
|---------|-----------|-5-----5-----5-----5-----5------|
|-5----8--|-7\--3-3-5-|--------------------------------|
|---------|-----------|---3-3---3-3---3-3---3-3---3----|


 6/4                         4/4
  E E E E E E E E E E E E     W          W
|-------------------------||-----------|------|
|-------------------------||o----------|------|
|-------------------------||-----------|------|
|---5-----5-----5---------||-----------|------|
|-------------------------||o----------|-6----|
|-3---3-3---3-3---3-3-3---||--3--------|------|


  W          H    H        H.     +E  E   H.     +E  E
|----------|------------||--------------|----------------|
|----------|-----------o||--------------|----------------|
|----------|------------||--------------|----------------|
|----------|------------||--------------|----------------|
|-3--------|-1---------o||------------5-|-6------(6)-5---|
|----------|------1-----||-3------(3)---|----------------|


  W          H    H      H.      +E  E   H.      +E  E
|----------|-----------|---------------|-----------------|
|----------|-----------|---------------|-----------------|
|----------|-----------|---------------|-----------------|
|----------|-----------|---------------|-----------------|
|-3--------|-1---------|-------------5-|-6-------(6)-5---|
|----------|------1----|-3-------(3)---|-----------------|


  W          H    H      E E E E E E E E   E E E E E E E E
|----------|-----------|-----------------|-------------------|
|----------|-----------|-----------------|-------------------|
|----------|-----------|-----------------|-------------------|
|----------|-----------|-----------------|-------------------|
|-3--------|-1----0----|-3-3-3-3-3-3-3-3-|-3-3-3-3-3-3-3-3---|
|----------|-----------|-----------------|-------------------|


  E E E E E E E E   E E E E E E E E   E E E E E E E E   E E E E E E E E
|-----------------|-----------------|-----------------|-------------------|
|-----------------|-----------------|-----------------|-------------------|
|-----------------|-----------------|-----------------|-------------------|
|-----------------|-----------------|-----------------|-------------------|
|-5-5-5-5-5-5-5-5-|-5-5-5-5-5-5-5-5-|-7-7-7-7-7-7-7-7-|-7-7-7-7-7-7-7-7---|
|-----------------|-----------------|-----------------|-------------------|


  E E E E E E E E   E E E E E E E E   Q  Q  Q  Q    Q  E E E E E E
|-----------------|-----------------|-------------|------------------|
|-----------------|-----------------|-------------|------------------|
|-----------------|-----------------|-------------|------------------|
|-----------------|-----------------|-------------|------------------|
|-9-9-9-9-9-9-9-9-|-9-9-9-9-9-9-9-9-|-------------|-3--3-3-3-3-3-5---|
|-----------------|-----------------|-3--3--3--3--|------------------|


  Q  Q  Q  Q    Q  Q  E E E E   E E E E E E E E   E E E E E E E E
|-------------|---------------|-----------------|-------------------|
|-------------|---------------|-----------------|-------------------|
|-------------|---------------|-----------9-----|-----------7-------|
|-------------|---------------|-----------------|-------------------|
|-------------|-3--3--3-3-3-5-|-7-7-7-7-7---7-7-|-5-5-5-5-5---5-5---|
|-3--3--3--3--|---------------|-----------------|-------------------|


  E E E E E E E E   E E E E E E E E   Q  Q  Q  Q    Q  Q  Q  E E
|-----------------|-----------------|-------------|----------------|
|-----------------|-----------------|-------------|----------------|
|-----------------|-----------------|-------------|----------------|
|-----------------|-----------------|-------------|----------------|
|-3-3-3-3-3-3-3-3-|-----------------|-------------|-3--3--3--3-5---|
|-----------------|-5-5-5-5-5-5-5-5-|-3--3--3--3--|----------------|


  Q  Q  Q  Q    Q  Q  E E E E   E E E E E E E E   E E E E E E E E
|-------------|---------------|-----------------|-------------------|
|-------------|---------------|-----------------|-------------------|
|-------------|---------------|-----------------|-------------------|
|-------------|---------------|-----------------|-------------------|
|-------------|-3--3--3-3-3-5-|-7-7-7-7-7-7-7-7-|-5-5-5-5-5-5-5-5---|
|-3--3--3--3--|---------------|-----------------|-------------------|


  E E E E E E E E   E E E E E E E E
|-----------------|-----------------|
|-----------------|-----------------|
|-----------------|-----------------|
|-----------------|-----------------|
|-3-3-3-3-3-3-3-3-|-----------------|
|-----------------|-5-5-5-5-5-5-5-5-|


  Q.    E   +E    E   +Q      E  E  E  E   +E    E   +E    E
|------<4>-(<4>)------------|-----------------------------------|
|----------------<4>-(<4>)--|-------------------<5>-(<5>)-------|
|---------------------------|---------<5>-(<5>)-----------<4>---|
|---------------------------|---<4>-----------------------------|
|---------------------------|-3-----3---------------------------|
|-0-------------------------|-----------------------------------|


    E E E  E   +E    Q.     E  E  E  E   +E    E   +E    E   6x
||--------<4>-(<4>)-------|----------------------------------||
||o-----------------<4>---|-------------------<5>-(<5>)-----o||
||------------------------|---------<5>-(<5>)-----------<4>--||
||----2-------------------|---<4>----------------------------||
||o-----------------------|-3-----3-------------------------o||
||--0---0-----------------|----------------------------------||


  E E E  E   +E    Q.     E  E  E  E   +E    E   +Q
|-------<4>-(<4>)-------|-------------------------------*|
|-----------------<4>---|-------------------<5>-(<5>)---*|
|-----------------------|---------<5>-(<5>)-------------*|
|---2-------------------|---<4>-------------------------*|
|-----------------------|-3-----3-----------------------*|
|-0---0-----------------|-------------------------------*|

            
            
Suggest correction
Creating personal tab
Creating personal tab
You can edit any tab online and save it as your Personal.

You can edit, replace or remove any tab part or add personal notes – all changes will be seen only by you.

Personal tabs can be accessed anytime from any device, even offline.
Learn more »
Give kudos to tab author, rate the tab!
1 2 3 4 5
comments
print report bad tab
guest
Wanna post a correction for this tab? Suggest correction