Oops, an error
Loading. Please wait.

Cannot Do This Alone chords

772 views 3 this week
2 commentsread comments
1 2 3 4 5
1 last vote to show rating
add to favorites
×
Save as Personal and add changes to this tab that will be seen only by you. Learn more ›
×
You can save this tab as Personal to edit and correct it or add notes. All changes will be seen only by you. Learn more »
launch autoscroll
font size
0
reset
transpose
0
reset
display chords
guitar tuner
edit
Autoscroll
slow
fast
+/-
esc
set tempo
stop
About this tab version
Combination of tab and chords. Was this info helpful? Yes No
Strumming
There is no strumming pattern for this song yet. and get +5 IQ
[Intro]
D#|---------------------------------------------------------------------------|
A#|---------------------------------------------------------------------------|
F#|--4-4-4-4-4-4-4/6/8-8-8-8-8-8\4-4-4-4-4-4----------------------------------|
C#|---------------------------------------------------------------------------|
G#|---------------------------------------------------------------------------|
D#|---------------------------------------------------------------------------|

you repeat the intro four time. Make sure to listen for the changes.

[Chords]

      B        G#m .       F# .     E
D#|----7---------4----------2--------0-----------------------------------------|
A#|----7---------4----------2--------0-----------------------------------------|
F#|----8---------4----------3--------1-----------------------------------------|
C#|----9---------6----------4--------2-----------------------------------------|
G#|----9---------6----------4--------2-----------------------------------------|
D#|----7---------4----------2--------0-----------------------------------------|

[Verse]
                N.C.
I fell in love with the crooked truth
                N.C.
One that I felt like I had to prove
                            G#m        F#
Like I could handle the pressure, on my own
               E
Except I never do
                      B
But I put on a fancy show

When I'm caught in the undertow
                      G#m                         F#
To hide when it's showing, this pride that I'm holding
               E
I can't let it go
     N.C.
Even though
           N.C.
I cannot do this alone

[Chorus] 
D#|----------------------------------------------------------------------------------------------------------|
A#|----------------------------------------------------------------------------------------------------------|
F#|--4-4-4-4-4-4-4/6/8-8-8-8-8-8\4-4-4-4-4-4-4-4-4-4-4-4-4-4-4/6/8-8-8-8-8-8-8\6-----------------------------|
C#|----------------------------------------------------------------------------------------------------------|
G#|----------------------------------------------------------------------------------------------------------|
D#|----------------------------------------------------------------------------------------------------------|

{Verse 2}
                           B
I still remember what my mother said

When I was younger, I won't forget
                         G#m
She sat down me and my brother
                          F#
Said, "Look out for each other"
               E
And we always did
                            B
Well later on then I met a girl

The true companion I found in her
                 G#m
I never wanted another
                     F#
So I tell her I love her
              E
And I always will
           N.C.
She needs to know that
            N.C.
I cannot do this alone
[Chorus]

D#|----------------------------------------------------------------------------------------------------------|
A#|----------------------------------------------------------------------------------------------------------|
F#|--4-4-4-4-4-4-4/6/8-8-8-8-8-8\4-4-4-4-4-4-4-4-4-4-4-4-4-4-4/6/8-8-8-8-8-8-8\4-4-4-4-4-4-4-4-4-4-4-4-4-4-4-|
C#|----------------------------------------------------------------------------------------------------------|
G#|----------------------------------------------------------------------------------------------------------|
D#|----------------------------------------------------------------------------------------------------------|


D#|---------------------------------------------------------------------------|
A#|---------------------------------------------------------------------------|
F#|--4-4-4-4-4-4-4/6/8-8-8-8-8-8\4-4-4-4-4-4-4-4-4-4-4-4/6/8-8-8-8-8-8-8\6----|
C#|---------------------------------------------------------------------------|
G#|---------------------------------------------------------------------------|
D#|---------------------------------------------------------------------------|



{Verse 3}
                             E
I need somebody who knows my name
                          F#
To shine a light on the darker days
                   B
Don't ever let me go

Don't ever let me go
                        E
Brother, don't let me forget the truth
                    F#
But then come after me if I do
                    B
Don't let me walk away

[Solo]
D#|---------------------------------0---0---------------------------------------|
A#|---------------------------------0---0---------------------------------------|
F#|--4---/-6-/--8---\4---4-/-6-/8---1---1---------------------------------------|
C#|---------------------------------2---2---------------------------------------|
G#|---------------------------------2---2---------------------------------------|
D#|---------------------------------0---0---------------------------------------|

[Chorus]
D#|---------------------------------------------------------------------------|
A#|---------------------------------------------------------------------------|
F#|--4-4-4-4-4-4-4/6/8-8-8-8-8-8\4-4-4-4-4-4--x4------------------------------|
C#|---------------------------------------------------------------------------|
G#|---------------------------------------------------------------------------|
D#|---------------------------------------------------------------------------|

end song on E

************************************

N.C. .  No chords
| /   Slide up
| \   Slide down

************************************

            
            
Suggest correction
Creating personal tab
Creating personal tab
You can edit any tab online and save it as your Personal.

You can edit, replace or remove any tab part or add personal notes – all changes will be seen only by you.

Personal tabs can be accessed anytime from any device, even offline.
Learn more »
Give kudos to tab author, rate the tab!
1 2 3 4 5
comments
print report bad tab
2 comments total.
0 reply
deancashwell1 10 Mar 28, 2017 07:45 PM, edited at 11:46 pm

I think that the second time the solo is played is a little different, maybe instead of ending on 8, ending on 6 then the Chords. and no Chords on the first time the solo is played. I could be wrong though. Otherwise everything is great! thank you for putting this up! Think you Could do a tab for 1234?

0 reply
wic321 67 Mar 31, 2017 04:54 PM

Thanks for telling me! I think i fixed it up. I am working on figuring out 1234 and follow me down and i plan to post lonely as soon as i get some free time. Thanks for the comment!

guest
You may want to rate the tab now too:
select rating
Wanna post a correction for this tab? Suggest correction