Oops, an error
Loading. Please wait.

De (L) Bolo chords

20 views 1 this week
no commentswrite comment
1 2 3 4 5
3 more votes to show rating
add to favorites
×
Save as Personal and add changes to this tab that will be seen only by you. Learn more ›
×
You can save this tab as Personal to edit and correct it or add notes. All changes will be seen only by you. Learn more »
launch autoscroll
font size
0
reset
transpose
0
reset
display chords
guitar tuner
edit
Autoscroll
slow
fast
+/-
esc
set tempo
stop
Strumming
There is no strumming pattern for this song yet. and get +5 IQ
Intro:
                            Riau Riau
                               C F
-----------------------------------
---------------------------------6-
--------------------5-5--------5---
7-7-7---5-7-8-8-7-8-----7-8--------
------8---------------------8------
-----------------------------------

Gaitas:

     C         F            C
-------5-----------------6-5-------
---------8-6-6-5---8-8-8-----8-8-6-
-5-5-5-----------------------------
-----------------------------------
-----------------------------------
-----------------------------------

     C         F            C
-------5---------------------------
---------8-6-6-5-5/6-5-------5-6---
-5-5-5-----------------7-5-7-------
-----------------------------------
-----------------------------------
-----------------------------------        x2

       C B A G
-------8-7-5-------------------8---
---5-8-------8-----5-6-5/65-8---8-
-5---------------------------------
-----------------------------------
-----------------------------------
-----------------------------------

G      C B A G
-------8-7-5-----------------------
---5-8-------8-----5-6-5/65-------
-5---------------------------7-5---
-----------------------------------
-----------------------------------
-----------------------------------        x2


C        F
Que la fiesta necesita
F        C
Ducha, percha y camerino
Enchufes con toma tierra
Y un toldo por si hace frío

El alcalde nos recibe
Encima del escenario
Ojalá que nos despida
A golpe de talonario

Si queremos más aplausos
Que pongais mucha atención
A flipar con las lucetas
Y que os guste mucho el show

             C B A G
Esque nos vamos de bolo
G            C B A G
Con la furgoneta a tope
Esto no sale en el mapa
Y hay concierto tarde y noche

Gaitas.

Pero son nuestros deseos
De los padres del invento
De artistas titiriteros
De los que viven del cuento

Siempre comiendo a deshoras
Fríos aguas y calores
Pocas cosas nos separan
De rudos agricultores

Hoy nos toca ir al ensayo
Y después a Montañana
A actuar a cielo raso
A ver si no nos cae agua.

Esque nos vamos de bolo?

Gaitas.

Donde está el representante
A qué hora es la actuación
Si aún no han acabao las jotas   (y el pantalón sin culera)
Y encima no entra el camión.


Menos mal que esto me gusta
Que si no me iba a currar
Con mi cuñao a la obra
Y con seguridad social

Ya me lo decía mi madre
Más te valdría estudiar
Todo el mundo va de fiesta
Nosotros a trabajar.

Esque nos vamos de bolo
Con la furgoneta a tope
Esto no sale en el mapa
Y hay concierto tarde y noche

     C         F            C
-------5-----------------6-5-------
---------8-6-6-5---8-8-8-----8-8-6-
-5-5-5-----------------------------
-----------------------------------
-----------------------------------
-----------------------------------

     C         F            C
-------5---------------------------
---------8-6-6-5-5/6-5-------5-6---
-5-5-5-----------------7-5-7-------
-----------------------------------
-----------------------------------
-----------------------------------        x2

¡Comando, comando, comando cucaracha!

-----5-8-8/10-8-5---5------------6-6/8-6-5-------
---6--------------6---8------5-8-----------8-5-6-
-5-------------------------5---------------------
-------------------------------------------------
-------------------------------------------------
-------------------------------------------------        x2

-8-8-8--------8-8-8--------8-8-----8-8-----------
-------8-5-6--------8-5-6------6-6-----6-5---6---
-------------------------------------------------
-------------------------------------------------
-------------------------------------------------
-------------------------------------------------

            
            
Suggest correction
Creating personal tab
Creating personal tab
You can edit any tab online and save it as your Personal.

You can edit, replace or remove any tab part or add personal notes – all changes will be seen only by you.

Personal tabs can be accessed anytime from any device, even offline.
Learn more »
Give kudos to tab author, rate the tab!
1 2 3 4 5
comments
print report bad tab
guest
Wanna post a correction for this tab? Suggest correction