Oops, an error
Loading. Please wait.

Como Olvidarte tab

275 views 1 this week
no commentswrite comment
1 2 3 4 5
3 more votes to show rating
add to favorites
×
Save as Personal and add changes to this tab that will be seen only by you. Learn more ›
×
You can save this tab as Personal to edit and correct it or add notes. All changes will be seen only by you. Learn more »
launch autoscroll
font size
0
reset
how to read this tab
guitar tuner
edit
Autoscroll
slow
fast
+/-
esc
set tempo
stop
Estos son los acordes basicos,
para tocarla exactamente igual que comisario usen esos mismos acordes
solo que con cejilla,
espero y les sirva. :)
Intro.
A - Bm - E

e|-------------------------------------------------------
B|-----------------------------------5-3-5-2-------------
G|-4/6--4-2---2----4/6--4-2---2/4----6-4-6-2-------------
D|----------4---------------4----------------------------
A|-------------------------------------------------------
E|-------------------------------------------------------

 A                               C#m     D
Lejos quedaron las noches de insomnio
           E                     F#m    E
sueños fugaces del mas grande amor
  A                               C#m   D
quise olvidarla probando otros labios
  E                      F#m   E
inigualable sera su calor
  D          Dm            A     A  D
¿Que puedo hacer para olvidarte,
A           D
como olvidarte,
A             C#m          E
como olvidar que te vas de mi?

A - Bm - E

e|----------------------------------------------------------7-----
B|-----------------------------------5-3-5-2---5-5-4-3----/7------
G|-4/6--4-2---2----4/6--4-2---2/4----6-4-6-2---6-6-5-4------------
D|----------4---------------4-------------------------------------
A|----------------------------------------------------------------
E|----------------------------------------------------------------

D          Dm             A    A - C#m - D
¿Que voy a hacer para olvidarte,
       A            C#m      E
como olvidar que te vas de mi?


A                         C#m      D
Eche mi cuerpo a flotar rió abajo
          E                  F#m    E
borre su nombre de mi corazón
A                             C#m   D
quise olvidarla probando mil labios
        E                F#m   E
inigualable sera su calor

D            Dm           A     D
¿Que voy a hacer para olvidarte?
A              D
Voy a olvidarte
A              C#m            E
voy a olvidar que te vas de mi
D        A         C#m        E
voy a olvidar que ya te perdí.

Final:
A C#m Bm Dm A

            
            
Suggest correction
Creating personal tab
Creating personal tab
You can edit any tab online and save it as your Personal.

You can edit, replace or remove any tab part or add personal notes – all changes will be seen only by you.

Personal tabs can be accessed anytime from any device, even offline.
Learn more »
Give kudos to tab author, rate the tab!
1 2 3 4 5
comments
print report bad tab
guest
Wanna post a correction for this tab? Suggest correction