Oops, an error
Loading. Please wait.

Chan Chan tab

version 1
version 1

Whole song

Interactive

689 views 9 this week
no commentswrite comment
1 2 3 4 5
1 last vote to show rating
add to favorites
×
Save as Personal and add changes to this tab that will be seen only by you. Learn more ›
×
You can save this tab as Personal to edit and correct it or add notes. All changes will be seen only by you. Learn more »
launch autoscroll
font size
0
reset
how to read this tab
guitar tuner
edit
Autoscroll
slow
fast
+/-
esc
set tempo
stop
E---||-----1--5--------5--|--------------5--3--1--0--|-----1--5-------
B---||--3--------6--------|--5--5--3-----------------|--3--------6----
G---||--------------7-----|-----------2--------------|----------------
D---||--------------------|--------------------------|----------------
A---||--------------------|--------------------------|----------------
E---||--------------------|--------------------------|----------------


       E                 E   E              E   E  E  E  E  E
E------5--|--E--E--E-----10--10--|------E---10--8--8--5--5--6--|------
B---E-----|--5--5--3--E----------|--E---10---------------------|------
G---7-----|-----------2----------|--10-------------------------|------
D---------|----------------------|-----------------------------|------
A---------|----------------------|-----------------------------|------
E---------|----------------------|-----------------------------|------


                   E   E              E   E  E  E  E     E  E
E---E--E-----E-----10--10--|------E---10--8--5--5--6--|--3--0--E------
B---8--5--E--5-------------|--E---10------------------|--------3------
G---------7-----E----------|--10----------------------|---------------
D---------------7----------|--------------------------|---------------
A--------------------------|--------------------------|---------------
E--------------------------|--------------------------|---------------


    E           E  E  E  E  E  E  E   E  E  E  E  E     E
E---0-----|--E--0--1--3--5--6--8--10--8--6--5--3--1--|--0--------E----
B------E--|--3---------------------------------------|--------E--0----
G------2--|------------------------------------------|-----E--1-------
D---------|------------------------------------------|-----3----------
A---------|------------------------------------------|----------------
E---------|------------------------------------------|----------------


    E E  E     E  E  E     E  E  E  E
E---0h1--1-----0--3--1--|--5--3--1--0--E--E--------------E------------
B-----------E-----------|--------------3--1--E--E-----E--1--E---------
G-----------1-----------|--------------------3--2--E--2-----3--E------
D-----------------------|--------------------------3-----------3------
A-----------------------|---------------------------------------------
E-----------------------|---------------------------------------------


          E                                                  E  E
E------E--1--|-----------------5--5--5--|-----1-----1-----|--3--3-----
B---E--1-----|-----------E--E--5--5--5--|--E--1--E--1--E--|-----------
G---2--------|--E--E--E--1--2--6--6--6--|--2-----2-----2--|-----------
D------------|--3--2--3-----------------|-----------------|-----------
A------------|--------------------------|-----------------|-----------
E------------|--------------------------|-----------------|-----------


     E                       E  E  E  E  E  E  E        E     E  E
E---h5--5--x--5--|--|--|--E--0--1--3--5--6--8--5--E-----6--|--3--0----
B-------5--x--5--|--|--|--3-----------------------6--E-----|----------
G----------------|--|--|-----------------------------7-----|----------
D----------------|--|--|-----------------------------------|----------
A----------------|--|--|-----------------------------------|----------
E----------------|--|--|-----------------------------------|----------


       E                 E  E  E           E  E  E
E---E--0-----|--|--|--E--1--5--1--E--E--E--0--5--0--|-----------E-----
B---2-----E--|--|--|--3-----------3--1--1-----------|--E--E--E--3-----
G---------2--|--|--|--------------------------------|--5--3--3--------
D------------|--|--|--------------------------------|-----------------
A------------|--|--|--------------------------------|-----------------
E------------|--|--|--------------------------------|-----------------


    E                                         E
E---3--E--------|--|--|--5--5--5-----------E--1--|--3--5--17--|--5----
B------3--E--E--|--|--|--6--6--6--6-----E--1-----|--6--5--15--|--6----
G---------3--2--|--|--|--7--7--7--5--E--2--------|--3--6--17--|--7----
D---------------|--|--|-----------7--3-----------|------------|-------
A---------------|--|--|--------------------------|------------|-------
E---------------|--|--|--------------------------|------------|-------


                E
E------------E--1--|--3--5--17--|-------------------------------------
B---6-----E--1-----|--6--5--15--|--------------E---E---E---E---E------
G---5--E--2--------|--3--6--17--|------E---E---12--13--14--14--14-----
D---7--3-----------|------------|--E---14--15-------------------------
A------------------|------------|--17---------------------------------
E------------------|------------|-------------------------------------


                                                    E
E---------------|--------------------|-----E--E--E--8--E--------------
B-----------E---|--------------E-----|--E--6--8--9-----10--E---E------
G---E---E---14--|--E---E---E---9--E--|--7------------------10--7------
D---15--12------|--14--12--11-----7--|--------------------------------
A---------------|--------------------|--------------------------------
E---------------|--------------------|--------------------------------


       E     E  E  E     E                          E  E E
E---E--6--|--3--3--0--E--0-----|-----1-----1-----|--3--3h5--5--x------
B---6-----|-----------2-----E--|--E--1--E--1--E--|----------5--x------
G---------|-----------------2--|--2-----2-----2--|--------------------
D---------|--------------------|-----------------|--------------------
A---------|--------------------|-----------------|--------------------
E---------|--------------------|-----------------|--------------------


                         E  E  E  E  E  E  E   E  E  E  E  E     E
E---5--|--|--|--|--|--E--0--1--3--5--6--8--10--8--6--5--3--1--|--0----
B---5--|--|--|--|--|--3---------------------------------------|-------
G------|--|--|--|--|------------------------------------------|-------
D------|--|--|--|--|------------------------------------------|-------
A------|--|--|--|--|------------------------------------------|-------
E------|--|--|--|--|------------------------------------------|-------


             E E  E     E  E  E     E  E  E  E
E---------E--0h1--1-----0--3--1--|--5--3--1--0--E--E------------------
B------E--0----------E-----------|--------------3--1--E--E-----E------
G---E--1-------------1-----------|--------------------3--2--E--2------
D---3----------------------------|--------------------------3---------
A--------------------------------|------------------------------------
E--------------------------------|------------------------------------


                   E
E---E-----------E--1--|-----------------5--5--5--|-----1-----1--------
B---1--E-----E--1-----|-----------E--E--5--5--5--|--E--1--E--1--E-----
G------3--E--2--------|--E--E--E--1--2--6--6--6--|--2-----2-----2-----
D---------3-----------|--3--2--3-----------------|--------------------
A---------------------|--------------------------|--------------------
E---------------------|--------------------------|--------------------


       E  E E                                      E  E  E  E   E
E---|--3--3h5--5--x--5--|--|--|--|--|-----E--E--E--5--6--8--10--8-----
B---|----------5--x--5--|--|--|--|--|--E--5--6--8---------------------
G---|-------------------|--|--|--|--|--7------------------------------
D---|-------------------|--|--|--|--|---------------------------------
A---|-------------------|--|--|--|--|---------------------------------
E---|-------------------|--|--|--|--|---------------------------------


    E  E                       E E  E     E  E  E     E  E  E  E
E---6--5--E--E--|--E--------E--0h1--1-----0--3--1--|--5--3--1--0------
B---------8--6--|--5-----E--0----------E-----------|------------------
G---------------|-----E--1-------------1-----------|------------------
D---------------|-----3----------------------------|------------------
A---------------|----------------------------------|------------------
E---------------|----------------------------------|------------------


                                     E
E---E--E--------------E-----------E--1--|-----------------5--5--5-----
B---3--1--E--E-----E--1--E-----E--1-----|-----------E--E--5--5--5-----
G---------3--2--E--2-----3--E--2--------|--E--E--E--1--2--6--6--6-----
D---------------3-----------3-----------|--3--2--3--------------------
A---------------------------------------|-----------------------------
E---------------------------------------|-----------------------------


                         E  E E
E---|-----1-----1-----|--3--3h5--5--x--5--|--|--|--|--|-----1---------
B---|--E--1--E--1--E--|----------5--x--5--|--|--|--|--|--E--1--E------
G---|--2-----2-----2--|-------------------|--|--|--|--|--2-----2------
D---|-----------------|-------------------|--|--|--|--|---------------
A---|-----------------|-------------------|--|--|--|--|---------------
E---|-----------------|-------------------|--|--|--|--|---------------


             E  E E
E---1-----|--3--3h5--17--17--|--17--17--17--17--|--17--17--17--17-----
B---1--E--|----------15--15--|--15--15--15--15--|--15--15--15--15-----
G------2--|----------17--17--|--17--17--17--17--|--17--17--17--17-----
D---------|------------------|------------------|---------------------
A---------|------------------|------------------|---------------------
E---------|------------------|------------------|---------------------


E---|--17--17--17--17--|--17--17--17--17--|--17--17--17--17--|--17----
B---|--15--15--15--15--|--15--15--15--15--|--15--15--15--15--|--15----
G---|--17--17--17--17--|--17--17--17--17--|--17--17--17--17--|--17----
D---|------------------|------------------|------------------|--------
A---|------------------|------------------|------------------|--------
E---|------------------|------------------|------------------|--------


E---17--17--17--|--17--17--17--17--|--17--17--17--17--|--|--|--5------
B---15--15--15--|--15--15--15--15--|--15--15--15--15--|--|--|--6------
G---17--17--17--|--17--17--17--17--|--17--17--17--17--|--|--|--7------
D---------------|------------------|------------------|--|--|---------
A---------------|------------------|------------------|--|--|---------
E---------------|------------------|------------------|--|--|---------


             E     E                          E  E  E  E  E  E  E
E---5--5-----5--E--5--E--|--E--E--E-----|--E--0--1--3--4--5--5--5-----
B---6--6--6-----5-----3--|--3--1--1--E--|--3--------------------------
G---7--7--5--------------|-----------2--|-----------------------------
D---------7--------------|--------------|-----------------------------
A------------------------|--------------|-----------------------------
E------------------------|--------------|-----------------------------


          E              E
E---E-----5--|--E--E--E--0-----|--17--17--17--17--|--17--17--17-------
B---6--E-----|--5--3--2-----E--|--15--15--15--15--|--15--15--15-------
G------7-----|--------------2--|--17--17--17--17--|--17--17--17-------
D------------|-----------------|------------------|-------------------
A------------|-----------------|------------------|-------------------
E------------|-----------------|------------------|-------------------


E---17--|--|--|--|--|--|--|--|--|--17--17--17--17--|--17--17--17------
B---15--|--|--|--|--|--|--|--|--|--15--15--15--15--|--15--15--15------
G---17--|--|--|--|--|--|--|--|--|--17--17--17--17--|--17--17--17------
D-------|--|--|--|--|--|--|--|--|------------------|------------------
A-------|--|--|--|--|--|--|--|--|------------------|------------------
E-------|--|--|--|--|--|--|--|--|------------------|------------------


E---17--|--17--17--17--17--|--17--17--17--17--|--17--17--17--17--|----
B---15--|--15--15--15--15--|--15--15--15--15--|--15--15--15--15--|----
G---17--|--17--17--17--17--|--17--17--17--17--|--17--17--17--17--|----
D-------|------------------|------------------|------------------|----
A-------|------------------|------------------|------------------|----
E-------|------------------|------------------|------------------|----


E---17--17--17--17--|--17--17--17--17--|--17--17--17--17--|--17-------
B---15--15--15--15--|--15--15--15--15--|--15--15--15--15--|--15-------
G---17--17--17--17--|--17--17--17--17--|--17--17--17--17--|--17-------
D-------------------|------------------|------------------|-----------
A-------------------|------------------|------------------|-----------
E-------------------|------------------|------------------|-----------


E---17--17--17--|--17--|--5~~~--||------------------------------------
B---15--15--15--|--15--|--5-----||------------------------------------
G---17--17--17--|--17--|--6-----||------------------------------------
D---------------|------|--5-----||------------------------------------
A---------------|------|--7-----||------------------------------------
E---------------|------|--5-----||------------------------------------


======================================================================
==                      TABLATURE EXPLANATION                       ==
======================================================================

----------                ----------                ----t---
----5h8--- Hammeron       ----(8)--- Ghost          ----6--- Tap
----------                ---------- Note           --------
----5p8--- Pulloff        ----------                --------

----------                ----------                -----p--
----5/8--- Slide Up       -----x---- Dead           -----7-- Pop
----------                ---------- Note           --s-----
----58--- Slide Down     ----------                --5----- Slap

----------                ||------|| Repeat         --------
----5~~~-- Vibrato        ||*----*||                ---5^--- Bend
----------                ||*----*||                --------
----------                ||------||                --------

----------                ----------                --------
-4:------- Time           ----------                --------
-4:------- Signature      ----------                --------
----------                ----------                --------

Rhythm:
  w = whole note            W = dotted whole
  h = half note             H = dotted half
  q = quarter note          Q = dotted quarter
  e = eighth note           E = dotted eighth
  s = sixteenth note        S = dotted sixteenth
  t = 32nd note             T = dotted 32nd
  x = 64th note             X = dotted 64th
  ^ = triplet

            
            
Suggest correction
Creating personal tab
Creating personal tab
You can edit any tab online and save it as your Personal.

You can edit, replace or remove any tab part or add personal notes – all changes will be seen only by you.

Personal tabs can be accessed anytime from any device, even offline.
Learn more »
Give kudos to tab author, rate the tab!
1 2 3 4 5
comments
print report bad tab
guest
Wanna post a correction for this tab? Suggest correction