Oops, an error
Loading. Please wait.

A Never Ending Search For Closure tab

version 1
version 1

Whole song

1,580 views 1 this week
3 commentsread comments
1 2 3 4 5
3 more votes to show rating
add to favorites
×
Save as Personal and add changes to this tab that will be seen only by you. Learn more ›
×
You can save this tab as Personal to edit and correct it or add notes. All changes will be seen only by you. Learn more »
launch autoscroll
font size
0
reset
how to read this tab
guitar tuner
edit
Autoscroll
slow
fast
+/-
esc
set tempo
stop
Author
Conducting From The Grave
A Never Ending Search For Closure
Drop D half-step down(DbAbDbGbBbEb)

. palm mute
tp trem pick

                  (2x)
Eb|--------------------------------------|
Bb|--------------------------------------|
Gb|--------------------------------------|
Db|------6-----5-------------------------|
Ab|------------------6-------6p4\3-3h4p3-|
Db|3-3-3---3-3---3-3---3-3-3-------------|
   . . .   . .   . .   . . .

Eb|--------------------------------|
Bb|--------------------------------|
Gb|--------------------------------|
Db|--------------------------------|
Ab|------3-----3/4-------6-6-6-4-3-|
Db|6-6-6---6-6-----5-5-5-----------|
   . . .   . .     . . .

Eb|--------------------------------------|
Bb|--------------------------------------|
Gb|--------------------------------------|
Db|------6-----5-------------------------|
Ab|------------------6-------6p4\3-3h4p3-|
Db|3-3-3---3-3---3-3---3-3-3-------------|
   . . .   . .   . .   . . .

Eb|----------------------------------|
Bb|----------------------------------|
Gb|------------------4-5-4-5-7-5-4-5-|
Db|----------------------------------|
Ab|------4-4-4-3-3-------------------|
Db|2-2-2-----------------------------|
   . . .

      (after playing the above 2x)
Eb|--------------------------------------|
Bb|--------------------------------------|
Gb|--------------------------------------|
Db|------6-----5-------------------------|
Ab|------------------6-------6p4\3-3h4p3-|
Db|3-3-3---3-3---3-3---3-3-3-------------|
   . . .   . .   . .   . . .

Eb|--------------------------------|
Bb|--------------------------------|
Gb|--------------------------------|
Db|--------------------------------|
Ab|------3-----3/4-------6-6-6-4-3-|
Db|6-6-6---6-6-----5-5-5-----------|
   . . .   . .     . . .

Eb|--------------------------------------|
Bb|--------------------------------------|
Gb|--------------------------------------|
Db|------6-----5-------------------------|
Ab|------------------6-------6p4\3-3h4p3-|
Db|3-3-3---3-3---3-3---3-3-3-------------|
   . . .   . .   . .   . . .

Eb|----------------------------------|
Bb|----------------------------------|
Gb|----------------------------------|
Db|----------------------------------|
Ab|------4-4-4-3-3-------------------|
Db|2-2-2------------3-4-3-4-6-4-3-4--|
   . . .

            (2x)
Eb|-------------------------|
Bb|-------------------------|
Gb|-------------------------|
Db|-6-4-3-6-4-3-6-4-3-6-4-3-|
Ab|-------------------------|
Db|-------------------------|

Eb|-------------------------|
Bb|-------------------------|
Gb|-------------------------|
Db|-5-3-2-5-3-2-5-3-2-5-3-2-|
Ab|-------------------------|
Db|-------------------------|

Eb|-------------------------|
Bb|-------------------------|
Gb|-6-4-3-6-4-3-6-4-3-6-4-3-|
Db|-------------------------|
Ab|-------------------------|
Db|-------------------------|

    tp  tp  tp  tp   tp  tp
Eb|--------------------------------|
Bb|--------------------------------|
Gb|-5---6---8---10---3---5---5-6-5-|
Db|--------------------------------|
Ab|--------------------------------|
Db|--------------------------------|
  
  (after playing the above 2x, play this)
Eb|---------------------------------------------------|
Bb|---------------------------------------------------|
Gb|-------------------------5-6-8-5-6-8-7-8-10-7-8-10-|
Db|-8-6-5-8-6-5-4-5-7-4-5-7---------------------------|
Ab|---------------------------------------------------|
Db|---------------------------------------------------|

Eb|---------------------------------------------|
Bb|---------------------------------------------|
Gb|-------------------------5-6-8-6-5-----------|
Db|-8-6-5-8-6-5-4-5-7-4-5-7-----------8-6--(7)--|
Ab|---------------------------------------------|
Db|---------------------------------------------|

                  (2x)
Eb|--------------------------------------|
Bb|--------------------------------------|
Gb|-------6-4---------8-6----------------|
Db|-----------7-----------5--------------|
Ab|-4-4-4-------6-6-6-------8-8-8-11-9-8-|
Db|--------------------------------------|
    . . .       . . .       . . .

Eb|-------------------------------------|
Bb|-------------------------------------|
Gb|---------8---------------------8-(8)-|
Db|-8-10-11---11-10-8-(8)-8-10-11-------|
Ab|-------------------------------------|
Db|-------------------------------------|

Eb|------------------------------------------|
Bb|------------------------------------------|
Gb|-8---------------------8-(8)-8------------|
Db|--11-10-8-(8)-8-10-11---------11-10-------|
Ab|------------------------------------8-(8)-|
Db|------------------------------------------|

Eb|---------------------------------------------------------------|
Bb|---------------------------------------------------------------|
Gb|---------------------------------------------------------------|
Db|---------8----------------------------8------------------------|
Ab|-8-10-11---11-10-8-10-11-8-(8)-8-10-11---11-10-8-10-11-10-(10)-|
Db|---------------------------------------------------------------|

Eb|------------------------------------|
Bb|------------------------------------|
Gb|------------------------------------|
Db|----------10----------------10-(10)-|
Ab|-10-12-13----13-12-10-12-13---------|
Db|------------------------------------|

Eb|----------------------------|
Bb|----------------------------|
Gb|----------10----------------|
Db|-10-12-13----13-12-10-12-13-|
Ab|----------------------------|
Db|----------------------------|

      (after playing the above 2x)
Eb|--------------------------------------|
Bb|--------------------------------------|
Gb|-------6-4---------8-6----------------|
Db|-----------7-----------5--------------|
Ab|-4-4-4-------6-6-6-------8-8-8-11-9-8-|
Db|--------------------------------------|
    . . .       . . .       . . .

    tp tp tp tp tp tp tp tp tp   (i put the same number over and over to 
Eb|-----------------------------| show that he picks that note longer
Bb|-----------------------------|
Gb|-----------------------------|
Db|-3--3--3--5--6--8--8--12--12-|
Ab|-----------------------------|
Db|-----------------------------|

Eb|----------------------------------------------------------|
Bb|----------------------------------------------------------|
Gb|----------------------------------------------------------|
Db|---------------13--------12h13----------------10----------|
Ab|-11---11-11-11----11--11--------10---10-10-10----13-11-10-|
Db|----------------------------------------------------------|
    .   .  .  .      .   .         .    .  .  .

    tp tp tp tp tp tp tp tp  tp
Eb|-----------------------------|
Bb|-----------------------------|
Gb|-----------------------------|
Db|-3--3--3--5--6--8--8--12--12-|
Ab|-----------------------------|
Db|-----------------------------|

Eb|-------------------------------------------------|
Bb|-------------------------------------------------|
Gb|-------------------------------------10--------9-|
Db|------------11--------10-------------------------|
Ab|-8---8-8-8------8--8------8---8-8-8------8--8----|
Db|-------------------------------------------------|
    .   . . .      .  .      .   . . .      .  .

    tp tp tp tp tp tp tp tp  tp
Eb|-----------------------------|
Bb|-----------------------------|
Gb|-----------------------------|
Db|-3--3--3--5--6--8--8--12--12-|
Ab|-----------------------------|
Db|-----------------------------|

Eb|----------------------------------------------------------|
Bb|----------------------------------------------------------|
Gb|----------------------------------------------------------|
Db|---------------13--------12h13----------------10----------|
Ab|-11---11-11-11----11--11--------10---10-10-10----13-11-10-|
Db|----------------------------------------------------------|
    .   .  .  .      .   .         .    .  .  .

    tp tp tp tp tp tp tp tp  tp
Eb|-----------------------------|
Bb|-----------------------------|
Gb|-----------------------------|
Db|-3--3--3--5--6--8--8--12--12-|
Ab|-----------------------------|
Db|-----------------------------|

Eb|------------------------------------------------|
Bb|------------------------------------------------|
Gb|------------10--------9-------------10--------9-|
Db|------------------------------------------------|
Ab|-8---8-8-8------8--8-----8---8-8-8------8--8----|
Db|------------------------------------------------|
    .   . . .      .  .     .   . . .      .  .

    tp tp tp tp tp tp  tp  tp  tp
Eb|-------------------------------|
Bb|-------------------------------|
Gb|-------------------------------|
Db|-6--6--6--8--9--11--11--15--15-|
Ab|-------------------------------|
Db|-------------------------------|

Eb|----------------------------------------------------------|
Bb|----------------------------------------------------------|
Gb|----------------------------------------------------------|
Db|---------------16--------15h16----------------13----------|
Ab|-14---14-14-14----14--14--------13---13-13-13----16-15-13-|
Db|----------------------------------------------------------|
    .    .  .  .     .   .         .    .  .  .

    tp tp tp tp tp tp  tp  tp  tp
Eb|-------------------------------|
Bb|-------------------------------|
Gb|-------------------------------|
Db|-6--6--6--8--9--11--11--15--15-|
Ab|-------------------------------|
Db|-------------------------------|

Eb|------------------------------------------------|
Bb|------------------------------------------------|
Gb|------------10--------9-------------10--------9-|
Db|------------------------------------------------|
Ab|-8---8-8-8------8--8-----8---8-8-8------8--8----|
Db|------------------------------------------------|
    .   . . .      .  .     .   . . .      .  .

    tp tp tp tp tp tp  tp  tp  tp
Eb|-------------------------------|
Bb|-------------------------------|
Gb|-------------------------------|
Db|-6--6--6--8--9--11--11--15--15-|
Ab|-------------------------------|
Db|-------------------------------|

Eb|----------------------------------------------------------|
Bb|----------------------------------------------------------|
Gb|----------------------------------------------------------|
Db|---------------16--------15h16----------------13----------|
Ab|-14---14-14-14----14--14--------13---13-13-13----16-15-13-|
Db|----------------------------------------------------------|
    .    .  .  .     .   .         .    .  .  .

    tp tp tp tp tp tp  tp  tp  tp
Eb|-------------------------------|
Bb|-------------------------------|
Gb|-------------------------------|
Db|-6--6--6--8--9--11--11--15--15-|
Ab|-------------------------------|
Db|-------------------------------|

Eb|-----------------------------------------------------|
Bb|-----------------------------------------------------|
Gb|------------10--------9-------------10--------9h10-9-|
Db|-----------------------------------------------------|
Ab|-8---8-8-8------8--8-----8---8-8-8------8--8---------|
Db|-----------------------------------------------------|
    .   . . .      .  .     .   . . .      .  .

i dont hav the clean part yet but ill get it

heres most of the song.....

            
            
Suggest correction
Creating personal tab
Creating personal tab
You can edit any tab online and save it as your Personal.

You can edit, replace or remove any tab part or add personal notes – all changes will be seen only by you.

Personal tabs can be accessed anytime from any device, even offline.
Learn more »
Give kudos to tab author, rate the tab!
1 2 3 4 5
comments
print report bad tab
3 comments total.
0 reply
cftg420 69 Oct 15, 2006 04:42 PM

all of these

Eb|----------------------------------------------------------|
Bb|----------------------------------------------------------|
Gb|----------------------------------------------------------|
Db|---------------16--------15h16----------------13----------|
Ab|-14---14-14-14----14--14--------13---13-13-13----16-15-13-|
Db|----------------------------------------------------------|
. . . . . . . . . .

should be like this

Eb|----------------------------------------------------------|
Bb|----------------------------------------------------------|
Gb|----------------------------------------------------------|
Db|---------------15--------14h15----------------12----------|
Ab|-13---13-13-13----13--13--------12---12-12-12----15-13-12-|
Db|----------------------------------------------------------|
. . . . . . . . . .

0 reply
cftg420 69 Oct 15, 2006 04:44 PM

my bad
all of these

Eb|----------------------------------------------------------|
Bb|----------------------------------------------------------|
Gb|----------------------------------------------------------|
Db|---------------16--------15h16----------------13----------|
Ab|-14---14-14-14----14--14--------13---13-13-13----16-15-13-|
Db|----------------------------------------------------------|
. . . . . . . . . .

should be like this

Eb|----------------------------------------------------------|
Bb|----------------------------------------------------------|
Gb|----------------------------------------------------------|
Db|---------------15--------14h15----------------12----------|
Ab|-13---13-13-13----13--13--------12---12-12-12----15-13-12-|
Db|----------------------------------------------------------|
. . . . . . . . . .

0 reply
cftg420 69 Oct 15, 2006 04:45 PM

the dots wont line up.....w/e....u can hear the palm mutes are in the song anyways

guest
You may want to rate the tab now too:
select rating
Wanna post a correction for this tab? Suggest correction