Oops, an error
Loading. Please wait.

Romance tab

60 views 1 this week
no commentswrite comment
1 2 3 4 5
3 more votes to show rating
add to favorites
×
Save as Personal and add changes to this tab that will be seen only by you. Learn more ›
×
You can save this tab as Personal to edit and correct it or add notes. All changes will be seen only by you. Learn more »
launch autoscroll
font size
0
reset
how to read this tab
guitar tuner
edit
Autoscroll
slow
fast
+/-
esc
set tempo
stop
Guitarra eléctrica versión "25 años"

Intro:
e------5---3-------------|----------------------|
B----6---6---5---1/3/1---|----3-3-3-5-5-6-6/10--|
G--------------5-------2-|----------------------|
D--0-------5-------------|--0-------------------|
A------------------------|----------------------|
E------------------------|----------------------|

Versos:
e-----8-8/10--|--13-12-8-8/10--|--10-12-13-13/17--|
B--10---------|----------------|------------------|
G-------------|----------------|------------------|
D-------------|----------------|------------------|
A-------------|----------------|------------------|
E-------------|----------------|------------------|

    REm      DO   (V-I)      LAm
    De tanto darle vida a la muerte
    REm      DO       (V-I)Lam
    Fuimos matando a la vida
    REm      DO       (V-I)Lam
    Echo a correr despavorida
    REm       DO    (V-I)Lam   REm DO (V-I) LAm
    Llorando llego la suerte  eee

    REm DO (V-I) LAm

    REm       DO     (V-I)   LAm
    Desde la noche bajo el notario
    REm       DO     (V-I)Lam
    Con tres sables de silencio
    REm       DO     (V-I)Lam
    Se me ha dormido el amor
    REm       DO   (V-I)Lam
    De cada sutil momento oooo


Interludio: REm FA REm DO REm
            LAm DO REm X2

    REm       DO    (V-I)Lam
    A fuerza de tanta luna
    REm       DO    (V-I)Lam
    Desgranada en la cabeza
    REm       DO      (V-I)Lam
    La niña llora una estrella
    REm       DO     (V-I)Lam
    Huye y resbala la artesa aaa

    REm DO (V-I) LAm

            
            
Suggest correction
Creating personal tab
Creating personal tab
You can edit any tab online and save it as your Personal.

You can edit, replace or remove any tab part or add personal notes – all changes will be seen only by you.

Personal tabs can be accessed anytime from any device, even offline.
Learn more »
Give kudos to tab author, rate the tab!
1 2 3 4 5
comments
print report bad tab
guest
Wanna post a correction for this tab? Suggest correction