Oops, an error
Loading. Please wait.

Mechita tab

201 views 1 this week
no commentswrite comment
1 2 3 4 5
3 more votes to show rating
add to favorites
×
Save as Personal and add changes to this tab that will be seen only by you. Learn more ›
×
You can save this tab as Personal to edit and correct it or add notes. All changes will be seen only by you. Learn more »
launch autoscroll
font size
0
reset
how to read this tab
guitar tuner
edit
Autoscroll
slow
fast
+/-
esc
set tempo
stop
INTRO:

"Vamos a ver esa Mechita que nunca se apaga primito"

E-----15----14----12-11----14-11/-----14-11----11-12-------12--/
B--12----12----12-------12------/--12-------12-------12--------/
G-------------------------------/-----------------------12-----/
D-------------------------------/------------------------------/
A-------------------------------/------------------------------/
E-------------------------------/------------------------------/

E----12----12----12-12----12----/----12--------12-10-/--12-14-15
B-13----13----13-------13----13-/-13----13-13--------/----------
G-------------------------------/--------------------/----------
D-------------------------------/--------------------/----------
A-------------------------------/--------------------/----------
E-------------------------------/--------------------/----------

E-----10---/-----------9-9-9-11-11-11-12-
B--12----12/--12-12-12-------------------
G----------/-----------------------------
D----------/-----------------------------
A----------/---------------------/------
E-----------/--------------------/-------

Estrofa
                  B7                    Em
Mechita de mis ensueños, muñequita seductora
                 D7                        G 
tu juventud atesora todo un mundo de esplendor,
                  E7                        Am
el misterio de tus ojos ha turbado toda mi calma
 C                              F#7       B7
y hace nacer en mi alma una esperanza de amor. [x2]

CORO
             B7
Mechita eres linda, tus ojos,
               Em
tus ojos me fascinan, tu boca,
              D7
tu boquita divina, quisiera,
              G 
quisiera yo besar.

                B7
Mechita tu bien sabes, lo mucho,
                Em
lo mucho que te quiero, por eso,
 D7          G         B7            Em(esta linea con arpegios)
por eso te ruego, no me hagas sufrir más.


"Oiga con esa Mechita, adentro Fiesta Criolla"

"Castígame con todo el golpe de tu cariño, Mechita Linda"


Se repite el Intro, luego la estrofa y por último el  Métanle
arreglos, bordoneos y todo que gusten, ya queda a su criterio.
Escúchenla antes: los tiempos, la cadencia y el ritmo de la canción.
Espero les guste a ver si ponen más cosas de fiesta criolla.
Saludos  todos los peruanos y amantes de la musica criolla peruana
Cualquier  cosa stevevicious@ Baitz

            
            
Suggest correction
Creating personal tab
Creating personal tab
You can edit any tab online and save it as your Personal.

You can edit, replace or remove any tab part or add personal notes – all changes will be seen only by you.

Personal tabs can be accessed anytime from any device, even offline.
Learn more »
Give kudos to tab author, rate the tab!
1 2 3 4 5
comments
print report bad tab
guest
Wanna post a correction for this tab? Suggest correction