Oops, an error
Loading. Please wait.

No Te Podias Quedar tab

44 views 1 this week
no commentswrite comment
1 2 3 4 5
3 more votes to show rating
add to favorites
×
Save as Personal and add changes to this tab that will be seen only by you. Learn more ›
×
You can save this tab as Personal to edit and correct it or add notes. All changes will be seen only by you. Learn more »
launch autoscroll
font size
0
reset
how to read this tab
guitar tuner
edit
Autoscroll
slow
fast
+/-
esc
set tempo
stop
a pex ahi les djo sto que m pidieron con todo y el intro del
acordeon, sta completo chequenlo


  intro


E----------------------------------------------------------
A----------------------------------------------------------
D-8------------------------------10------------------------
G--8-10-10-10-10-10-10-8-10--8-10--10----------------------
B------8--8--8--8--8-------10--------8-8-9-8-9-8-9-8-9-8-9-
e----------------------------------------------------------


E----------------------------------------------------------
A----------------------------------------------------------
D------------8---------------------------------------------
G--10-8-8-10---8-10-10-10-10-10-10-108-10--8-10------------
B-8----8-----------8--8--8--8--8--8------10----------------
e----------------------------------------------10-11-13-11-

G----------------------------------------------------------
B----------------------------------------------------------
e-10-11-11-11-11-13-11-10-10-10-10-13-13-11-10-11----------


                  D  F#m  G
   Preguntaron por ti
         A         D  F#m  G
   Mis amigos de siempre,
           A         Bm   A
   Saben que te marchaste
                G
   Y querían saber...
                       A
   Si es que vas a volver.


                    D  F#m  G
   Yo les dije que no,
            A             D  F#m  G
   Que no fue un ?hasta luego?,
         A             Bm   A
   Un adiós no es un juego
                      G
   Y lo escuché claramente
                    A
   De tus labios mi amor.

    Coro:

             D
   Que no podías quedarte mas
             A
   Aquí con migo.
               G
   Que era tu decisión y que
               A
   Te comprendiera.


              D
   Yo no te puedo castigar
              A
   Por no quererme,
                G                 A
   Si la felicidad, yo no fui para ti
                            D
   Fue lo mejor que así te fuera.

    D   A   G   A      D   A   G   A   D

solo:

E----------------------------------------------------------
A----------------------------------------------------------
D-8------------------------------10------------------------
G--8-10-10-10-10-10-10-8-10--8-10--10----------------------
B------8--8--8--8--8-------10--------8-8-9-8-9-8-9-8-9-8-9-
e----------------------------------------------------------


E----------------------------------------------------------
A----------------------------------------------------------
D------------8---------------------------------------------
G--10-8-8-10---8-10-10-10-10-10-10-108-10--8-10------------
B-8----8-----------8--8--8--8--8--8------10----------------
e----------------------------------------------10-11-13-11-

G----------------------------------------------------------
B----------------------------------------------------------
e-10-11-11-11-11-13-11-10-10-10-10-13-13-11-10-11----------


                 D  F#m  G
   Y no pude evitar
        A           D  F#m  G
   Regalarte un suspiro
           A         Bm   A
   Lo que mas he querido,
                         G
   Eres tu y te has marchado
                  A
   Me he quedado sin ti.

    Coro:

             D
   Que no podías quedarte mas
             A
   Aquí con migo.
               G
   Que era tu decisión y que
               A
   Te comprendiera.


              D
   Yo no te puedo castigar
              A
   Por no quererme,
                G                 A
   Si la felicidad, yo no fui para ti
                            D
   Fue lo mejor que así te fuera.

    D   A   G   A      D   A   G   A   D

            
            
Suggest correction
Creating personal tab
Creating personal tab
You can edit any tab online and save it as your Personal.

You can edit, replace or remove any tab part or add personal notes – all changes will be seen only by you.

Personal tabs can be accessed anytime from any device, even offline.
Learn more »
Give kudos to tab author, rate the tab!
1 2 3 4 5
comments
print report bad tab
guest
Wanna post a correction for this tab? Suggest correction