Oops, an error
Loading. Please wait.

Forever Dolphin Love tab

6,466 views 39 this week
2 commentsread comments
1 2 3 4 5
x 4
add to favorites
×
Save as Personal and add changes to this tab that will be seen only by you. Learn more ›
×
You can save this tab as Personal to edit and correct it or add notes. All changes will be seen only by you. Learn more »
launch autoscroll
font size
0
reset
how to read this tab
guitar tuner
edit
Autoscroll
slow
fast
+/-
esc
set tempo
stop
Author
Difficulty
Connan Mockasin - Forever Dolphin Love

note: I chose not to add the lyrics into this tab 'cause I'm not sure about them;
      but you can look them up on the internet.
      Instead, I added time marks as an indication of where you are in the song.


INTRO

- the song starts of with a long, fuzzy intro, then the bass gets rhythm in it around [2:08]:

   B

G|---2---2---------4---4---|
D|-4-------432-0-----------|
A|---------------2---------|
E|-------------------------|

then, the guitar starts at around [2:51]:

   Amaj7              Bmaj7

e|----------5-------------------7----------|
B|----9-------9----------11-------11-------|
G|-------6------6------------8-------8-----|
D|-----------------------------------------|
A|-----------------------------------------|
E|-5-5----5---------5/7-7-----7----------7\|

then the bass plays this at [3:46], with some delay over it:

G|---------4-------|
D|-------------4---|
A|-0h2---2-------2-|
E|-----------------|

then the guitar plays this at [4:17]:

   Bm         Bmsus2/A  F#m         Esus4      Dmaj7/E    Amaj7

e|----------------------------------0---0-------------------------|
B|-3----------2---------2----------------------2----------2-------|
G|---4----------4---------2-----------2----------2----------1-----|
D|-----4----------4---------4----------------------2----------2---|
A|----------------------------------------------------------------|
E|----------------------------------------------------------------|


VERSE 1 [5:11]

- continue the riff above, this will be called the main guitar riff


CHORUS [6:06]

   A                   B7                    F#m

e|------9---10---12---------11---12----14--------------10---12-|
B|-10------------------10--------------------------------------|
G|-------------------------------------------11---13-----------|
D|-------------------------------------------------------------|  x2 (last time,
A|-------------------------------------------------------------|      play the last four notes twice)
E|-------------------------------------------------------------|


then this bass riff again:

G|---------4-------|
D|-------------4---|
A|-0h2---2-------2-|
E|-----------------|

and from [6:50], back to the main guitar riff


VERSE 2 [7:18]

- continue the main riff


from [8:13], the slide guitar sort of takes over the melody of the lyrics, like this:

e|----------------------------------------------------------------|
B|----------------------------------------------------------------|
G|----6/9--9---7-9\6---6/9-9----6/9-11\6-----6/7\6/7\6------------|
D|----------------------------------------------------------------|
A|----------------------------------------------------------------|
E|----------------------------------------------------------------|


OUTRO [9:35]

  bass riff again

G|---------4-------|
D|-------------4---|
A|-0h2---2-------2-|
E|-----------------|

            
            
Suggest correction
Creating personal tab
Creating personal tab
You can edit any tab online and save it as your Personal.

You can edit, replace or remove any tab part or add personal notes – all changes will be seen only by you.

Personal tabs can be accessed anytime from any device, even offline.
Learn more »
comments
print report bad tab
2 comments total.
0 reply
rcherie112 10 Mar 07, 2017 12:16 AM

theres more bass then what you have

0 reply
TZM 2,409 Mar 07, 2017 06:06 PM

I know. This is a guitar tab, the bass tabs are just for indication.
Feel free to tab the bass though ;)

guest
You may want to rate the tab now too:
select rating
Wanna post a correction for this tab? Suggest correction