Oops, an error
Loading. Please wait.

Silent Film Score bass

by Conner
80 views 1 this week
no commentswrite comment
1 2 3 4 5
3 more votes to show rating
add to favorites
×
Save as Personal and add changes to this tab that will be seen only by you. Learn more ›
×
You can save this tab as Personal to edit and correct it or add notes. All changes will be seen only by you. Learn more »
launch autoscroll
font size
0
reset
guitar tuner
edit
Autoscroll
slow
fast
+/-
esc
set tempo
stop
In my opinion the bass is the is the hero of this song. It's a fairly simple but catchy riff.

let the guitar play for 4 measures and come in with the drums.


verse

G-----------------------------------------------------------------|
D----------------0h2p0-0------0-0---------------------------------|
A---3-0------0-3------------------3-2-2-----2-2-0-------0-0-0-2---|
E-------------------------------------------------4-4-4-----------|x5

chorus

this part, I'm sure, little is a little off.
G-------------------------------------------------|
D-------------------------------------------------|
A-----0-0-----0-0-----0-0-----0-0-----------------|
E--0------0-0-----0-0-----0-0-----0-0-------------|


but this part 100 percent right.
D--------------------------------------------------------------|
G--------------------------------------------------------------|
A--3--3--3-2-0--0-0-0-0-0-0-0--3--3--3-0-2-3--3--3-3-2---------|
E--------------------------------------------------------------|


D---------------------------------------------------------------|
G---------------------------------------------------------------|
A--3--3--3-2-0--0-0-0-0-0-0-0-------------0--0-0-0-0--0---------|
E-----------------------------4--4--4-4-4-----------------------|

That' is it, if you have any problems with this tab. bwehde__@hotmail.com

            
            
Suggest correction
Creating personal tab
Creating personal tab
You can edit any tab online and save it as your Personal.

You can edit, replace or remove any tab part or add personal notes – all changes will be seen only by you.

Personal tabs can be accessed anytime from any device, even offline.
Learn more »
Give kudos to tab author, rate the tab!
1 2 3 4 5
comments
print report bad tab
guest
Wanna post a correction for this tab? Suggest correction