Oops, an error
Loading. Please wait.

St You tab

40 views 1 this week
1 commentread comment
1 2 3 4 5
1 last vote to show rating
add to favorites
×
Save as Personal and add changes to this tab that will be seen only by you. Learn more ›
×
You can save this tab as Personal to edit and correct it or add notes. All changes will be seen only by you. Learn more »
launch autoscroll
font size
0
reset
how to read this tab
guitar tuner
edit
Autoscroll
slow
fast
+/-
esc
set tempo
stop
Author
Chord names given on top of the tab for those who want to simplify it. I've tried to line the lyrics up with
the tab as to make picking along with it easier. If you learn it up to the end of the chorus, it simply
repeats other than for one lick noted for the D* and for the final chord lick to an A4sus. This should be far
more accurate than the other ones out there. Enjoy!  

    A
E|------------------------------------------------|
B|--------------2-----------2----------2----------|
G|---------2--2--------2--2-------2--2-------2--2-|
D|-------2---2-------2---2------2---2------2---2--|
A|--0-----------0-----------0----------0----------|
E|------------------------------------------------|   

      Sweet girl in the diamond cut dress. She's the
    A
E|------------------------------------------------|
B|--2-----------2-----------2----------2----------|
G|---------2--2--------2--2-------2--2-------2--2-|
D|-------2---2-------2---2------2---2------2---2--|
A|--0-----------0-----------0----------0----------|
E|------------------------------------------------|  
   queen of the broken     hearts 
    D         C6sus2        A
E|------------------------------------------------|
B|--3----------1-----------2-------------2--------|
G|---------2-----------2----------2------------2--|
D|--0----0---0-------0---0------2---2--------2---2| 
A|-------------3-----------0-------------0--------|
E|------------------------------------------------|
   I'd        milk   that  poison      tongue
    A                      D           A
E|------------------------------------------------|
B|--2-----------2-----------3----------2----------|
G|---------2--2--------2--2-------2--2-------2--2-|
D|-------2---2-------2---2--0---0---0------2---2--|   
A|--0-----------0----------------------0----------|
E|------------------------------------------------|   

And go blind in the lovers'     march
    E               D*           A
E|-----------------------------------------------|
B|--------------------3--------2---------2-------|
G|---------1--------2---2---------2----------2---|
D|-------2---2------0---0-------2---2------2---2-|   
A|-----------------------------0---------0-------|
E|--0--------------------------------------------|  
*Second time chord changes picking. See later on.

Chorus:
                     Who you calling on?
    E               F#7b11       A
E|-------------------------------------------------|
B|-----------------------------0------------2------|
G|---------1--------------2----------2----------2--|
D|-------2---2----------2---2------2---2------2---2|
A|--2----------------------------0-----------------|
E|------------------2------------------------------| 

          Who's      callin' you?
    E               F#7b11       A
E|-------------------------------------------------|
B|-----------------------------0------------2------|
G|---------1--------------2----------2----------2--|
D|-------2---2----------2---2------2---2------2---2|
A|--2----------------------------0-----------------|
E|------------------2------------------------------| 

    I'm soaked in kerosene              This is no
    E               F#7b11       A
E|-------------------------------------------------|
B|-----------------------------0------------2------|
G|---------1--------------2----------2----------2--|
D|-------2---2----------2---2------2---2------2---2|
A|--2----------------------------0-----------------|
E|------------------2------------------------------| 
   gentleman's blues
    E               F#7b11       A
E|-------------------------------------------------|
B|-----------------------------0------------2------|
G|---------1--------------2----------2----------2--|
D|-------2---2----------2---2------2---2------2---2|
A|--2----------------------------0-----------------|
E|------------------2------------------------------| 

  Emptied a pocket full of pennies Wading in the well
    E               F#7b11       A
E|-------------------------------------------------|
B|-----------------------------0------------2------|
G|---------1--------------2----------2----------2--|
D|-------2---2----------2---2------2---2------2---2|
A|--2----------------------------0-----------------|
E|------------------2------------------------------| 

  Hoping that my hook scraped your tooth
    E               F#7b11       A
E|-------------------------------------------------|
B|-----------------------------0------------2------|
G|---------1--------------2----------2----------2--|
D|-------2---2----------2---2------2---2------2---2|
A|--2----------------------------0-----------------|
E|------------------2------------------------------|

In a city that was hung by that old devil moon
    E               F#7b11       A
E|-------------------------------------------------|
B|-----------------------------0------------2------|
G|---------1--------------2----------2----------2--|
D|-------2---2----------2---2------2---2------2---2|
A|--2----------------------------0-----------------|
E|------------------2------------------------------|

   I scaled a street called      St. You
    E               F#7b11       A
E|-------------------------------------------------|
B|-----------------------------0------------2------|
G|---------1--------------2----------2----------2--|
D|-------2---2----------2---2------2---2------2---2|
A|--2----------------------------0-----------------|
E|------------------2------------------------------|
         Baby bled      on all      my keys
    A
E|------------------------------------------------|
B|--2-----------2-----------2----------2----------|
G|---------2--2--------2--2-------2--2-------2--2-|
D|-------2---2-------2---2------2---2------2---2--|
A|--0-----------0-----------0----------0----------|
E|------------------------------------------------|  
She set    my strings     ablaze
    D         C6sus2        A
E|------------------------------------------------|
B|--3----------1-----------2-------------2--------|
G|---------2-----------2----------2------------2--|
D|--0----0---0-------0---0------2---2--------2---2| 
A|-------------3-----------0-------------0--------|
E|------------------------------------------------|
Saying 'sweetheart    you ask too many questions,
    A                       D          A
E|------------------------------------------------|
B|--2-----------2-----------3----------2----------|
G|---------2--2--------2--2-------2--2-------2--2-|
D|-------2---2-------2---2--0---0---0------2---2--|   
A|--0-----------0----------------------0----------|
E|------------------------------------------------| 
 It's never just a pretty face'
    E               D*           A
E|------------------------------------------------|
B|---------------------3--------2---------2-------|
G|---------1--------2--4--2---------2----------2--|
D|-------2---2------0--0--0-------2---2------2---2|   
A|------------------------------0---------0-------|
E|--0---------------------------------------------| 
*chord now picked differently than first verse.


{REST IS CHORUS CHORDS}
    E               F#7b11       A
E|-------------------------------------------------|
B|-----------------------------0------------2------|
G|---------1--------------2----------2----------2--|
D|-------2---2----------2---2------2---2------2---2|
A|--2----------------------------0-----------------|
E|------------------2------------------------------| 

Who you callin' on?
Who's callin' on you?
They might say love has a trigger finger
They might call me a fool
Keep on keeping your love captive in them hollow tombs
I'm still swingin' on the cross of St. You

[KEEP PLAYING CHORDS. LAST TIME END WITH THIS]
    E               F#7b11       A       Asus4  A
E|-------------------------------------------------|
B|-----------------------------0-----------3----2--|
G|---------1--------------2------------2---2----2--|
D|-------2---2----------2---2----2---2-----2----2--|
A|--2----------------------------0-----------------|
E|------------------2------------------------------| 





            
            
Suggest correction
Creating personal tab
Creating personal tab
You can edit any tab online and save it as your Personal.

You can edit, replace or remove any tab part or add personal notes – all changes will be seen only by you.

Personal tabs can be accessed anytime from any device, even offline.
Learn more »
Give kudos to tab author, rate the tab!
1 2 3 4 5
comments
print report bad tab
1 comment total.
0 reply
TheGoodBrother 83 Jul 03, 2016 03:16 AM

Brillant! Thanks for that!

guest
You may want to rate the tab now too:
select rating
Wanna post a correction for this tab? Suggest correction