Oops, an error
Loading. Please wait.

La Quejabanza tab

28 views 1 this week
no commentswrite comment
1 2 3 4 5
3 more votes to show rating
add to favorites
×
Save as Personal and add changes to this tab that will be seen only by you. Learn more ›
×
You can save this tab as Personal to edit and correct it or add notes. All changes will be seen only by you. Learn more »
launch autoscroll
font size
0
reset
how to read this tab
guitar tuner
edit
Autoscroll
slow
fast
+/-
esc
set tempo
stop
Bueno esta es mi primera transcripción disculpen si hay errores
INTRO
2 VECES

      Am          E        Am           E
E-----------------------|---------------------
B-----5---------------5-|--5-----8-6-6-5-6-5--
G-------5---7-5-7-5-7---|----5----------------
D---------7-------------|------7--------------
A-----------------------|---------------------
E-----------------------|---------------------

      Am    E           Am
E----------------------------
B-----5---------------5------
G-------5---7-5-7-5-7---5----
D---------7---------------7--
A----------------------------
E----------------------------


che pesimista te veo preocupao!!
Am
puede que yo pierda mañana el trabajo
         F      E
creo que va a llober
F
no se si tendre un accidente en el carro
                E
el mundo esta alrebes
F
mucho gusto yo soy che pesimista
Am
todo va de mal en peor
F
salir de mi casa se me hace dificil
  E  E   E   E
y no me gu-sta!

CORO
Am                 E
Deja ya la quejabanza
Am                   E
remplazala con alabanza
Am                    E
deja de hacer tanta buya
Am                   E
cantale a Dios aleluya

porque a Dios
Am                     E
no le gusta que te quejes

Dale a Dios
Am                E
lo que El solo merece

amalo
Am                     E
pon en cristo tu confianza

porfavor
Am                 E
deja ya la quejabanza

      Am          E        Am           E
E-----------------------|---------------------
B-----5---------------5-|--5-----8-6-6-5-6-5--
G-------5---7-5-7-5-7---|----5----------------
D---------7-------------|------7--------------
A-----------------------|---------------------
E-----------------------|---------------------

      Am    E           Am
E----------------------------
B-----5---------------5------
G-------5---7-5-7-5-7---5----
D---------7---------------7--
A----------------------------
E----------------------------


señorita dolores como le va hoy?

Am
hoy me duele mas la cabeza que ayer
       F      E
yo no se que hacer
F
soy la señorita dolores tu vez
               E
me duele tanto el pie
F
cuando hace frio yo siempre me enfermo
Am
me fastidia tanto el calor
F
y esta medisina me da indigestion
  E  E   E   E
y no me gusta!

CORO
Am                 E
Deja ya la quejabanza
Am                   E
remplazala con alabanza
Am                    E
deja de hacer tanta buya
Am                   E
cantale a Dios aleluya

porque a Dios
Am                     E
no le gusta que te quejes

Dale a Dios
Am                E
lo que El solo merece

amalo
Am                     E
pon en cristo tu confianza

porfavor
Am                 E
deja ya la quejabanza

      Am          E        Am           E
E-----------------------|---------------------
B-----5---------------5-|--5-----8-6-6-5-6-5--
G-------5---7-5-7-5-7---|----5----------------
D---------7-------------|------7--------------
A-----------------------|---------------------
E-----------------------|---------------------

      Am    E           Am
E----------------------------
B-----5---------------5------
G-------5---7-5-7-5-7---5----
D---------7---------------7--
A----------------------------
E----------------------------


aver que dice pepito gruñon

Am
esta sopa esta muy caliente mujer
            F     E
que malo esta el cafe
F
yo no quiero ir a la iglesia otra vez
             E
no me caen bien
F
siempre que yo voy por la calle me gritan
Am
mira alli va pepito gruñon!
F
todo me molesta y si vienes a hablarme
E  E   E   E
no me gusta!

CORO
Am                 E
Deja ya la quejabanza
Am                   E
remplazala con alabanza
Am                    E
deja de hacer tanta buya
Am                   E
cantale a Dios aleluya

porque a Dios
Am                     E
no le gusta que te quejes

Dale a Dios
Am                E
lo que El solo merece

amalo
Am                     E
pon en cristo tu confianza

porfavor
Am                 E
deja ya la quejabanza


F
oye mi consejo
Am
no pierdas el tiempo
E                           Am
cuando tu te quejas no le agrada a DIos

F
quida lo que dices
Am
y como lo dices
E                                E E    E
porque en tu palabra esta el poder de DIos

CORO
Am                 E
Deja ya la quejabanza
Am                   E
remplazala con alabanza
Am                    E
deja de hacer tanta buya
Am                   E
cantale a Dios aleluya

porque a Dios
Am                     E
no le gusta que te quejes

Dale a Dios
Am                E
lo que El solo merece

amalo
Am                     E
pon en cristo tu confianza

porfavor
Am                 E
deja ya la quejabanza


Bueno aquí esta buenísima canción y aquí les dejo
Mi correo por si hay dudas: danielitovivoxcristo@
Un saludo a mi iglesia amada Ministerios Bendicion De Dios
Y un saludo a mis cuates cristian, keyla, juancho, gris y
a mi amada novia cory. QUE DIOS LES BENDIGA

            
            
Suggest correction
Creating personal tab
Creating personal tab
You can edit any tab online and save it as your Personal.

You can edit, replace or remove any tab part or add personal notes – all changes will be seen only by you.

Personal tabs can be accessed anytime from any device, even offline.
Learn more »
Give kudos to tab author, rate the tab!
1 2 3 4 5
comments
print report bad tab
guest
Wanna post a correction for this tab? Suggest correction