Oops, an error
Loading. Please wait.

Perfecto Amor tab

46 views 1 this week
no commentswrite comment
1 2 3 4 5
3 more votes to show rating
add to favorites
×
Save as Personal and add changes to this tab that will be seen only by you. Learn more ›
×
You can save this tab as Personal to edit and correct it or add notes. All changes will be seen only by you. Learn more »
launch autoscroll
font size
0
reset
how to read this tab
guitar tuner
edit
Autoscroll
slow
fast
+/-
esc
set tempo
stop
Esta es una de mis canciones preferidas espero la puedan sacar,
esta fácil.
con la colaboracion de Noel Rodriguez.

Intro

Al mismo tiempo del punteo se tocan estos acordes.
Escuchen bien el ritmo de la canción, esta bien fácil.

GUITARRA 1
G, G/F#, Em, C, D
G, G/F#, G/B, C, D

GUITARRA 2
E-------2-5-3-2-------3-------------------------------
B-----3---------3-3/5---3/5-5-3-3/1-1-0---------------
G---4-----------------------------------2-2-2/4-4-----
D-----------------------------------------------------
A-----------------------------------------------------
E-----------------------------------------------------

E-----------------------------------------------------
B-----4-4/5-----5---8-----3-0-------------------------
G---2-------5/7---7---3/4-----2-0---------------------
D---------------------------------4-4/5---------------
A-----------------------------------------------------
E-----------------------------------------------------

C              D
 MUY DENTRO DE MI HAY HALGO DE TI
C              D     D/B
 TU SOLO EXISTIR ME AYUDA A VIVIR
C                 D
 YO QUIERO QUE EL MUNDO VEA CUAN PROFUNDO
C               D       D/B           C, D
 TU AMOR ES POR MI, MI AMOR ES POR TI

E---2/3-3-2-0-0---------------------------------------
B---------------1/3-3-1-0-----------------------------
G-------------------------2-0-------------------------
D-----------------------------------------------------
A-----------------------------------------------------
E-----------------------------------------------------

G            G/F#            Em
 YO QUIERO VOLAR Y LLEGAR CONTIGO
         C              D
 A ESE LUGAR QUE ME HAS PROMETIDO
G                G/F#      G/B
 QUIERO QUE ME ENSEÑES DEL PERFECTO AMOR
C            D                  C, D
 QUE SOLO PROVIENE DE TU CORAZON

E---2/3-3-2h3p2-0-------------------------------------
B-----------------3-1-0h1p0---------------------------
G---------------------------2-0-----------------------
D-----------------------------------------------------
A-----------------------------------------------------
E-----------------------------------------------------

C              D
 LLENASTE EL VACIO EN EL CORAZON MIO
C             D          D/B
 ME DISTE ESPERANZA AL BAÑARME EN TU RIO
C               D
 DE BENDICIONES, DE PERFECCIONES
C           D         D/B       C, D
 NO PUEDO NEGAR TU PERFECTO AMOR

E-----------------------------------------------------
B---3/5-5-3-------------------------------------------
G-----------5-4h5p4-2-2-0---2-0-----------------------
D-------------------------4---------------------------
A-----------------------------------------------------
E-----------------------------------------------------

G            G/F#            Em
 YO QUIERO VOLAR Y LLEGAR CONTIGO
         C              D
 A ESE LUGAR QUE ME HAS PROMETIDO
G                G/F#      G/B
 QUIERO QUE ME ENSEÑES DEL PERFECTO AMOR
C            D                  C, D
 QUE SOLO PROVIENE DE TU CORAZON

E-------------------3-5-------------------------------
B---------------3/5-----3/5---------------------------
G---0-0-2-4-4/5---------------------------------------
D-----------------------------------------------------
A-----------------------------------------------------
E-----------------------------------------------------

Em        C    D     G    G/F#
 COMO QUISIERA DESPERTARME

Em         C     D     G      G/F#
 ENTRE LAS NUBES Y TUS ANGELES

E---5-3-2-0-------------------------------------------
B---7-5-3-5-------------------------------------------
G-----------------------------------------------------
D-----------------------------------------------------
A-----------------------------------------------------
E-----------------------------------------------------


Em             C         D           G     G/F#
 SOLO TU, SOLO TU ME DAS MOTIVO A CONTINUAR

E---10-8-7--------------------------------------------
B----------10-8---------------------------------------
G-----------------------------------------------------
D-----------------------------------------------------
A-----------------------------------------------------
E-----------------------------------------------------

Em             C          D                G    G/F#
 SOLO TU, SOLO TU ESTARAS CONMIGO HASTA EL FINAL

E-----------------------------------------------------
B---7/8-7-5-------------------------------------------
G-----------7-----------------------------------------
D-------------5-7h9-----------------------------------
A-----------------------------------------------------
E-----------------------------------------------------

E                    C                   C
 DISTE TU VIDA POR MI, DARE MI VIDA POR TI


E-----------------------------------------------------
B---8-8-8-7h8p7-5-3-----------------------------------
G-----------------------------------------------------
D-----------------------------------------------------
A-----------------------------------------------------
E-----------------------------------------------------

G            G/F#            Em
 YO QUIERO VOLAR Y LLEGAR CONTIGO
         C              D
 A ESE LUGAR QUE ME HAS PROMETIDO B-8-8-8/10-10-------
G                G/F#      G/B
 QUIERO QUE ME ENSEÑES DEL PERFECTO AMOR
C            D                  C, D
 QUE SOLO PROVIENE DE TU CORAZON


E-----------------------------------------------------
B---7/8-8-10-12-12------------------------------------
G-----------------------------------------------------
D-----------------------------------------------------
A-----------------------------------------------------
E-----------------------------------------------------


SOLO (MISMAS NOTAS DEL CORO)

E----------------------------------------------------
B----------------------------------------------------
G--5/7-7-5-4h5p4-----------------5/7-7-5-4-7-5-5-----
D----------------7-5-7-7/9-9-7-5-----------------7-5-
A----------------------------------------------------
E----------------------------------------------------

E----------------------------------------------------
B---------------8/10-8-7-8-4/5-5-7-8-8---------------
G---3/4-4-5-7-7------------------------7/9-7-5-------
D----------------------------------------------5-----
A----------------------------------------------------
E----------------------------------------------------

E---8/10-10-8----------------------------------------
B-------------12-10-8-10-12-12-10-8-8----------------
G----------------------------------------------------
D----------------------------------------------------
A----------------------------------------------------
E----------------------------------------------------

E----------------------------------------------------
B-----8-7-5-5----------------------------------------
G---7---------5-7-7/5-5-4----------------------------
D----------------------------------------------------
A----------------------------------------------------
E----------------------------------------------------

E---10-10-8----12------------------------------------
B-----------12----10-10-8-8h10-8-8-------------------
G----------------------------------------------------
D-----------------------------------------------------
A-----------------------------------------------------
E-----------------------------------------------------

E---------------10------------------------------------
B-------8-10/12----12-10-8-8/10-8-8-------------------
G---7/9-----------------------------------------------
D-----------------------------------------------------
A-----------------------------------------------------
E-----------------------------------------------------

Como la canción no termina pueden agregarle este final
haciéndolo muy lento, pero esperen que termine el circulo
de la canción y hacen esto, aunque se no se si saldrá bien,
pero intenten, si en caso se les ocurre una mejor idea avísenme:


E-----------------------------------------------------
B-------3-0-------------------------------------------
G---3/4-----2-0---------------------------------------
D---------------4-4/5---------------------------------
A-----------------------------------------------------
E-----------------------------------------------------


Esta es toda la cancion puede ser que tenga algunas
errores pero en si la cancion suena muy bien.
Saludos para el ministerio musical de la iglesia
?EL BUEN PASTOR? Tegucigalpa,Honduras.

            
            
Suggest correction
Creating personal tab
Creating personal tab
You can edit any tab online and save it as your Personal.

You can edit, replace or remove any tab part or add personal notes – all changes will be seen only by you.

Personal tabs can be accessed anytime from any device, even offline.
Learn more »
Give kudos to tab author, rate the tab!
1 2 3 4 5
comments
print report bad tab
guest
Wanna post a correction for this tab? Suggest correction