Oops, an error
Loading. Please wait.

Haz Tu Ley chords

26 views 1 this week
no commentswrite comment
1 2 3 4 5
3 more votes to show rating
add to favorites
×
Save as Personal and add changes to this tab that will be seen only by you. Learn more ›
×
You can save this tab as Personal to edit and correct it or add notes. All changes will be seen only by you. Learn more »
launch autoscroll
font size
0
reset
transpose
0
reset
simplify chords
display chords
guitar tuner
edit
Autoscroll
slow
fast
+/-
esc
set tempo
stop
Strumming
There is no strumming pattern for this song yet. and get +5 IQ
INTRO:

(G#5-B5-G#5-B5-A#5)x2

|-----------------------------------------|
|-----------------------------------------|
|-----------------------------------------|
|-6-6-6-6-6--9-9-9-9-9--6-6-6-6-6--9--8---|
|-6-6-6-6-6--9-9-9-9-9--6-6-6-6-6--9--8---|
|-4-4-4-4-4--7-7-7-7-7--4-4-4-4-4--7--6---|


|-----------------------------------------|
|-----------------------------------------|
|-----------------------------------------|
|-6-6-6-6-6--9-9-9-9-9--6-6-6-6-6--9------|
|-6-6-6-6-6--9-9-9-9-9--6-6-6-6-6--9------|
|-4-4-4-4-4--7-7-7-7-7--4-4-4-4-4--7------|


G#5            B5
No me interesa el mundo en que estoy
G#5              B5              A#5
Tiempo de perros también destruccion
G#5              B5
Quieres ganar en cualquier situacion
G#5               B5       A#5
Eres el Karma la putrefaccion!

G#5              B5
Buscas problemas encuenTras temor
G#5                   B5         A#5
Muerdes y tientas con mala intencion
G#5               B5
Crees que siempre tienes la razon
G#5              B5       A#5
abre los ojos no seas huevon!

CORO 1

G#5          D5

Hoy por mi!  No por ti!
B5              F#5
Mañana por mi!  Tampoco por ti!

G#%          D5
Hoy por mi!  No por ti!
B5              F#5
Mañana por mi!  Tampoco por ti!

CORO 2

G#5           D5
Haz tu ley!
B5            F#5
Haz tu ley!
G#5           D5
Haz tu ley!
B5            F#5
Haz tu ley!


G#5              B5
Creas intrigas y siembras tension
G#5               B5         A#5
Ahora te miro con mala intencion
G#5               B5
Jodes a todos sin tener razon
G#5            B5         A#5
Termina ya con esta situacion

G#5                B5
Tu vida aqui ya no tiene valor
G#5                 B5       A#5
Ni tus palabras llenas de rencor
G#5               B5
Conozco bien el camino en que estoy
G#5                B5       A#5
Hago mi Ley y no escucho tu voz!

    REPETIR: (CORO 1,2)

|--------------------------|
|--------------------------|
|--------------------------|
|-6-----9-----6-----9-8----|
|-6-----9-----6-----9-8----|
|-4-----7-----4-----7-6----|

|--------------------------|
|--------------------------|
|--------------------------|
|-6-----9-----6------X-X-X-|
|-6-----9-----6------X-X-X-|
|-4-----7-----4------X-X-X-|


(G#5-B5-G#5-B5-A#5)x4--->ESTO ACOMPAÑA EL SOLO

    REPETIR CORO 1,2

|--------------------------|
|--------------------------|
|--------------------------|
|-6-----9-----6-----9-8----|
|-6-----9-----6-----9-8----|
|-4-----7-----4-----7-6----|

|--------------------------|
|--------------------------|
|--------------------------|
|-6-----9-----6-----7...---|
|-6-----9-----6-----7...---|
|-4-----7-----4-----5..----|


ya ps para MI esta al 100porciento sin solo
un saludo pal profe markos y pa ki banda protesta

pa burro juan cohinola hierbA skkti y muchos mas
cualkeir duda sugerencia amenaza
d muerte felicitaiones a mi korre wfern3@

            
            
Suggest correction
Creating personal tab
Creating personal tab
You can edit any tab online and save it as your Personal.

You can edit, replace or remove any tab part or add personal notes – all changes will be seen only by you.

Personal tabs can be accessed anytime from any device, even offline.
Learn more »
Give kudos to tab author, rate the tab!
1 2 3 4 5
comments
print report bad tab
guest
Wanna post a correction for this tab? Suggest correction