Oops, an error
Loading. Please wait.

Vencedor tab

version 1
version 1

Whole song

48 views 1 this week
no commentswrite comment
1 2 3 4 5
3 more votes to show rating
add to favorites
×
Save as Personal and add changes to this tab that will be seen only by you. Learn more ›
×
You can save this tab as Personal to edit and correct it or add notes. All changes will be seen only by you. Learn more »
launch autoscroll
font size
0
reset
how to read this tab
guitar tuner
edit
Autoscroll
slow
fast
+/-
esc
set tempo
stop
eStE TeMa KaRgAdo KoN BaStAnT PuNXe
En ToDoS LoS KoNcIERtOs D KoNTrAKoRrIeNtE
Ahi Se las Dejo Px.. PeRo La WaDa EsQ
Yo La trAte d SaKaR En ViVo Px

  ah! basuras fuerza!

  ahi esta vencedor karajo! a esa gente
  a esa gente vencedora, sakense la puta mare!
  vamo ahi!
e|-------------------------------------|
B|-------------------------------------|
G|-------------------------------------|
D|---------9xx9xx9---------------------| (X2)
A|-9xx9xx9-7xx7xx7-9xx9xx9-7xx7xx7-----|
E|-7xx7xx7---------7xx7xx7-5xx5xx5-----|

e|-------------------------------------|
B|-------------------------------------|
G|---------------------------------6~--|
D|---------9xx9xx9-----------------4~--|
A|-9xx9xx9-7xx7xx7-9xx9xx9-7xx7xx7-----|
E|-7xx7xx7---------7xx7xx7-5xx5xx5-----|

 vamos ahi vencedor pa' esa gente!

e|-------------------------------------|
B|-------------------------------------|
G|-------------------------------------|
D|-xxxx6-6-6---------------------------|
A|-xxxx4-4-4------7----------9---------|
E|------------5-5---5----7-7---7-------|

...

  Estás convencido que te gana el vicio
e|-------------------------------------|
B|-------------------------------------|
G|-------------------------------------|
D|-xxxx6-6-6---------------------------|
A|-xxxx4-4-4------7----------9---------|
E|------------5-5---5----7-7---7-------|

 No estás perdido, deja de ser necio
e|-------------------------------------|
B|-------------------------------------|
G|-------------------------------------|
D|-xxxx6-6-6---------------------------|
A|-xxxx4-4-4------7----------9---------|
E|------------5-5---5----7-7---7-------|

 A veces me dices que vas a parar y siempre engañas
e|-------------------------------------|
B|-------------------------------------|
G|-------------------------------------|
D|-xxxx6-6-6---------------------------|
A|-xxxx4-4-4------7----------9---------|
E|------------5-5---5----7-7---7-------|

 Tu amigo se fue y ella también, Abre tu cabeza
e|-------------------------------------|
B|-------------------------------------|
G|-------------------------------------|
D|-xxxx6-6-6---------------------------|
A|-xxxx4-4-4------7----------9---------|
E|------------5-5---5----7-7---7-------|


                  ...Ya son varios años
e|---------------------------|
B|--------5-4-5--------------|
G|-(6)xxx--------------------|
D|---------------------------|
A|--------------7777--9999---|
E|--------------5555--7777---|

               ...que sigues ahí haciéndote daño
e|---------------------------|
B|---------------------------|
G|-(6)xxxxxxxx---------------|
D|---------------------------|
A|--------------7777--9999---|
E|--------------5555--7777---|

                ...Decide ahora mismo!
e|---------------------------|
B|---------------------------|
G|-(6)xxxxxxxx---------------|
D|---------------------------|
A|--------------7777--9999---|
E|--------------5555--7777---|

               ...Decide vivir o morir!
e|---------------------------|
B|---------------------------|
G|-(6)xxxxxxxx---------------|
D|---------------------------|
A|--------------7777--9999---|
E|--------------5555--7777---|


                                 ...Si estás perdido,
e|-------------------------------------|
B|-------------------------------------|
G|-------------------------------------|
D|-xxxx6-6-6---------------------------|
A|-xxxx4-4-4------7----------9---------|
E|------------5-5---5----7-7---7-------|

          ...busca el camino lo encontrarás
e|-------------------------------------|
B|-------------------------------------|
G|-------------------------------------|
D|-xxxx6-6-6---------------------------|
A|-xxxx4-4-4------7----------9---------|
E|------------5-5---5----7-7---7-------|

 Ponte el escudo! Vamos amigo ponte a luchar!
e|-------------------------------------|
B|-------------------------------------|
G|-------------------------------------|
D|-xxxx6-6-6---------------------------|
A|-xxxx4-4-4------7----------9---------|
E|------------5-5---5----7-7---7-------|

 No eres un perdedor!
e|-------------------------------------|
B|-------------------------------------|
G|-------------------------------------|
D|-xxxx6-6-6---------------------------|
A|-xxxx4-4-4------7----------9---------|
E|------------5-5---5----7-7---7-------|

 Tú eres un vencedor!
e|-------------------------------------|
B|-----------7b-7b---------------------|
G|-------------------------------------|
D|-xxxx6-6-6---------------------------|
A|-xxxx4-4-4------------7----------9---|
E|------------------5-5---5----7-7---7-|


vamo' ahi!      ...Ya son varios años
e|---------------------------|
B|---------------------------|
G|-(6)xxxxxxxx---------------|
D|---------------------------|
A|--------------7777--9999---|
E|--------------5555--7777---|

            ...que sigues ahí Haciéndote daño,
e|---------------------------|
B|---------------------------|
G|-(6)xxxxxxxx---------------|
D|---------------------------|
A|--------------7777--9999---|
E|--------------5555--7777---|

            ...decide ahora mismo
e|---------------------------|
B|---------------------------|
G|-(6)xxxxxxxx---------------|
D|---------------------------|
A|--------------7777--9999---|
E|--------------5555--7777---|

            ...Tú puedes volver a vivir!
e|---------------------------|
B|---------------------------|
G|-(6)xxxxxxxx---------------|
D|---------------------------|
A|--------------7777--9999---|
E|--------------5555--7777---|

solo:
        fuerza fieras!    vamo' ahi!         ke linda gente karajo!
e|-----------------------------------------------------------------
B|-----------------------------------------------------------------
G|-9-9-8-8-9-9-11-11-9-8-(X4)--------------------------------------
D|--------------------------------2---2-4p2-4~------2---2-4-2-4~---
A|----------------------------2-4---4-----------2-4---4------------
E|-----------------------------------------------------------------

                 apoyando la escena!                 hoy relajense!
e|-----------------------------------------------------------------
B|-9----9----9-----------------------------------------------------
G|-11b--11b--11b--9-9-8-8-9-9-11-11b-11p9--------9-11-11b-11p9-11~-
D|----------------------------------------11~--11------------------
A|-----------------------------------------------------------------
E|-----------------------------------------------------------------

                           ahorita revienta!   jimy brother!
e|--------15-------------------------------------------------------
B|-/15-18-18b-18-15-18~----15-18p15--------------------------------
G|-----------------------17---------17p14-12p10-10-12^~------------
D|-----------------------------------------------------------------
A|-----------------------------------------------------------------
E|-----------------------------------------------------------------

                       fuerza karajo! esa gente, el epilectiko, esa
e|---------------------------------------17p13---------------------
B|-14p16p17-14p16p17-17^~-17-14-17^~---15-----17-15----------------
G|-----------------------------------17------------17p16p14-12^~---
D|-----------------------------------------------------------------
A|-----------------------------------------------------------------
E|-----------------------------------------------------------------

 gente de siempre, oe rekonchatumare! tirame la webada!
e|-----------------------------------------------------------------
B|-----------------------------------------------------------------
G|-10-12^~-------x-x-x-x-x-x-x-x-x-x-x-x-x-x-x---------------------
D|---------14/0--2-2-2-4-4-4-5-5-5-7-7-7-9-9-9---------------------
A|---------------x-x-x-x-x-x-x-x-x-x-x-x-x-x-x---------------------
E|---------------x-x-x-x-x-x-x-x-x-x-x-x-x-x-x---------------------

...tu lo puedes hacer ...tu lo puedes vencer
e|-----------------------------------------------------------|
B|-----------------------------------------------------------|
G|-----------------------------------------------------------|
D|-(6)xxxxxxxxxxxxx------------------------------------------|
A|-(4)xxxxxxxxxxxxx--(7)xxxxxxxxxxx--(9)xxxxxxxxxxx----------|
E|-------------------(5)xxxxxxxxxxx--(7)xxxxxxxxxxx----------|

...tu lo puedes hacer ...tu lo puedes vencer!
e|-----------------------------------------------------------|
B|-----------------------------------------------------------|
G|-----------------------------------------------------------|
D|-(6)xxxxxxxxxxxxx------------------------------------------|
A|-(4)xxxxxxxxxxxxx--(7)xxxxxxxxxxx--(9)xxxxxxxxxxx----------|
E|-------------------(5)xxxxxxxxxxx--(7)xxxxxxxxxxx----------|

e|-----------------------------------------------------------|
B|-----------------------------------------------------------|
G|-9-9-8-8-9-9-11-11-10-9-(X2)-------------------------------|
D|-----------------------------------------------------------|
A|-----------------------------999~-7~-99~-------------------|
E|-----------------------------777~-5~-77~-------------------|

e|-----------------------------------------------------------|
B|-----------------------------------------------------------|
G|9-9-8-8-9-9-11-11-10-9--9-9-10-10-9-9-10-10-9-8------------|
D|-----------------------------------------------------------|
A|------------------------------------------------99~-7~-99~-|
E|------------------------------------------------77~-5~-77~-|

  Agarra tu escudo ponte a luchar! No seas cojudo desahuevate ya!
e|-----------------------------------------------------------|
B|-----------------------------------------------------------|
G|-----------------------------------------------------------|
D|-6~--------------------------------------------------------|
A|-4~----------------------------------7~----------9~--------|
E|-------------------------------------5~----------7~--------|

 Agarra tu escudo...         ...No seas Kojudo desahuevate ya!
e|-----------------------------------------------------------|
B|-----------------------------------------------------------|
G|-----------------------------------------------------------|
D|-6~--------------------------------------------------------|
A|-4~----------------------------------7~----------9~--------|
E|-------------------------------------5~----------7~--------|

 No seas perdedor...
e|-----------------------------------------------------------|
B|-----------------------------------------------------------|
G|-----------------------------------------------------------|
D|-6~------2-------------------------------------------------|
A|-4~--2p4---4-2-4---------------------7~----------9~--------|
E|-------------------------------------5~----------7~--------|

tú eres vencedor!
e|-----------------------------------------------------------|
B|----------------7b-7b--------------------------------------|
G|-----------------------------------------------------------|
D|-6~--------------------------------------------------------|
A|-4~----------------------7-7--7----------9-9-9-------------|
E|-------------------------5-5----5--------7-7---7-----------|

No pierdas!!!

e|-----------------------------------------------------------|
B|-----------------------------------------------------------|
G|-----------------------------------------------------------|
D|-6~--------------------------------------------------------|
A|-4~--------------------------------------------------------|
E|-----------------------------------------------------------|

SaLuDos A DsKiXiE! Q Se StA ArMaNdO ReCiEn
En Los EsCeNaRiOS, Y Pa Al JuAnO k PaRa ReVenTaNdO
La BaTeRiA PX DeJa eL ViCiO BaSuRa!
X) X) x) X) X) x) X) X) x) X) X) x) X) X) x) X) X) x) X) X) x)
X) X) x) X) X) x) X) X) x) X) X) x) X) X) x) X) X) x) X) X) x)
X) X) x) X) X) x) X) X) x) X) X) x) X) X) x) X) X) x) X) X) x)
X) X) x) X) X) x) X) X) x) X) X) x) X) X) x) X) X) x) X) X) x)
X) X) x) X) X) x) X) X) x) X) X) x) X) X) x) X) X) x) X) X) x)
X) X) x) X) X) x) X) X) x) X) X) x) X) X) x) X) X) x) X) X) x)

            
            
Suggest correction
Creating personal tab
Creating personal tab
You can edit any tab online and save it as your Personal.

You can edit, replace or remove any tab part or add personal notes – all changes will be seen only by you.

Personal tabs can be accessed anytime from any device, even offline.
Learn more »
Give kudos to tab author, rate the tab!
1 2 3 4 5
comments
print report bad tab
guest
Wanna post a correction for this tab? Suggest correction