Oops, an error
Loading. Please wait.

Y Ya Es La Hora tab

14 views 1 this week
no commentswrite comment
1 2 3 4 5
3 more votes to show rating
add to favorites
×
Save as Personal and add changes to this tab that will be seen only by you. Learn more ›
×
You can save this tab as Personal to edit and correct it or add notes. All changes will be seen only by you. Learn more »
launch autoscroll
font size
0
reset
how to read this tab
guitar tuner
edit
Autoscroll
slow
fast
+/-
esc
set tempo
stop
PUta oJalA Ke Con EstOs AcOrdez SE lokees PS con unas de Las CAnciones
Mas PendeJas de ContracoRRiente =) Intenten sacarlas y si nO PuedeN
MIra lOs Acordes Y saca PS take esa CanciON es lA mas fAcil de TOdas
puta Ke si no lo saCastes EstaraS Hasta El Queso!!!!

Intro: 2veces (RAPIDO)

-------------------------------------------------------------------------
-------------------------------------------------------------------------
12---12-10-9-7---7-4-7-9---9-7-5-4---4-2-4-5---5-4-2---------------------
12---12-10-9-7---7-4-7-9---9-7-5-4---4-2-4-5---5-4-2--3--4--2--4--3--5---
10---10--8-7-5---5-2-5-7---7-5-3-2---2-0-2-3---3-2-0--3--4--2--4--3--5---
------------------------------------------------------5--2--0--2--5--7---

Estrofa: 2veces (NORMAL)

----------------------------------------------------
----------------------------------------------------
12-12---11-11---9-9---7-7---3-3---2-2---2-2---7-7---
12-12---11-11---9-9---7-7---3-3---2-2---2-2---7-7---
10-10----9--9---7-7---5-5---5-5---4-4---0-0---5-5---
----------------------------------------------------

Intro: 2veces (RAPIDO)
Estrofa: 2veces(NORMAL)

Cambio 1 : Haces 1 Tiempo Y 1/2 ...

-----------------------------------------------------------------------
-----------------------------------------------------------------------
-----------------------------------------------------------------------
10-10-10-10-10-10-10--------------10-10-10-10-10-10-10-----------------
10-10-10-10-10-10-10--------------10-10-10-10-10-10-10-----------------
-8--8--8--8--8--8--8--10-8-0-1//---8--8--8--8--8--8--8--10-8-10-13//---

Cambio 2 : Las 2 guitarras juntas...

--------------------------------
--------------------------------
--------------------------------
-3-3-3-3-3-3-3--5-5-5-5-5-5-5---
-3-3-3-3-3-3-3--5-5-5-5-5-5-5---
-1-1-1-1-1-1-1--3-3-3-3-3-3-3---

Punteo : La 2ª guitarra se keda con el cambio 2 (8 veces)


-10//-15s14s12s15s14s12s15s14s12s15s14s12s15s14s12s15s14s12s15s14s12--14//-
---------------------------------------------------------------------------
---------------------------------------------------------------------------
---------------------------------------------------------------------------
---------------------------------------------------------------------------
---------------------------------------------------------------------------

-------18-17-15---------------------------------------------------------------
-17-15----------17-15-18--15-13-15//---9//-12p11p9p12p11p9p12p11p9p12p11-12//-
------------------------------------------------------------------------------
------------------------------------------------------------------------------
------------------------------------------------------------------------------
------------------------------------------------------------------------------

---------------------------------------------------------------------------
-9p12p11p9p12p11p9p12p11--14p13p11p14p13p11--9p12p11p9p12p11p9p12p11--14//-
---------------------------------------------------------------------------
---------------------------------------------------------------------------
---------------------------------------------------------------------------
---------------------------------------------------------------------------

--------------------------------------------------------------------------
-----16'------19----16'-----19--16'------19----16'-----19---16'-----19----
-17//---18-18----------18-18-------18-18----------18-18--------18-18------
--------------------------------------------------------------------------
--------------------------------------------------------------------------
--------------------------------------------------------------------------

--------------------------------------------------------------------------
-16'------19----16'-----19--16'------19----16'-----19---16'-----19//------
----18-18----------18-18-------18-18----------18-18--------18-18----------
--------------------------------------------------------------------------
--------------------------------------------------------------------------
--------------------------------------------------------------------------

Intro: 2 veces (RAPIDO)....

Estrofa: 2veces (NORMAL)....

final---> Cambio 1 : Haces 4 veces....


Take Saludos A mi Pata Kuervo Y a los 2 poseros Richard Y ChaKA ke
Hasta aHora esPero MI Parche de La bateria.......ojala ke dios haga un milagro

URGENTE: NeseCito UN cantante menor de 17 años pero ke sepa cantar
         Iron Maiden Si eres tu Anota mi msn : josuex_nick@
         o si no llamame al 3850458.......

            
            
Suggest correction
Creating personal tab
Creating personal tab
You can edit any tab online and save it as your Personal.

You can edit, replace or remove any tab part or add personal notes – all changes will be seen only by you.

Personal tabs can be accessed anytime from any device, even offline.
Learn more »
Give kudos to tab author, rate the tab!
1 2 3 4 5
comments
print report bad tab
guest
Wanna post a correction for this tab? Suggest correction