Oops, an error
Loading. Please wait.

Black Cloud tab

551 views 6 this week
no commentswrite comment
1 2 3 4 5
3 more votes to show rating
add to favorites
×
Save as Personal and add changes to this tab that will be seen only by you. Learn more ›
×
You can save this tab as Personal to edit and correct it or add notes. All changes will be seen only by you. Learn more »
launch autoscroll
font size
0
reset
how to read this tab
guitar tuner
edit
Autoscroll
slow
fast
+/-
esc
set tempo
stop
-------------------------------------------------------------------------------
                             Black Cloud - Converge
-------------------------------------------------------------------------------
Tabbed by:Me
E-mail:noneofyourbusiness.com

So first off this song is very atonal so I may be wrong about a few of the chords.I'm a bit unsure of the
octaves being used so I did my best to make it sound good even if it isn't 100% like what Ballou is playing
on the album. Also I'm not 100% sure of the part with all the hammer on's and pull off's towards the end, but
what I have here I think sounds good.

This is more or less a starting point for figuring out the song, and I
welcome any correction that might make this an even better tab.
I'll let you guys put all the parts together on your own, just listen to the song.

Tuning:Drop D  
It's hardcore so turn up the gain!!

e|------------------------------|
B|------------------------------|
G|-----6-----------6----------6-|x4 no 6 on the last time through end on 3b-0
D|-3b-0x-6-5-4-3b-0x-6-5--3b-0x-|      x                                 3b-0
A|-3b-04-6-5-4-3b-04-6-5--3b-04-|      4                                 3b-0
D|-3b-0--6-5-4-3b-0--6-5--3b-0--|

e|-----------------|
B|-----------------|
G|-----------------|x3
D|-3b--0---0-0-0-0-|
A|-3b--0---0-0-0-0-|
D|-3b--0---0-0-0-0-|
        PM . . . . 
                                                                    
e|-----------------------------------------------------------------<9>---|
B|-----------------------------------------------------------------<9>---|x2
G|---------------------------6666----4------4------4-------4444----<9>---|then x2 again
D|-3--4-4--3--4-4--3--4-4----xxxx-2--x-3-3--x-3-3--x-3-3---xxxx-3--<9>---|
A|-3--4-4--3--4-4--3--4-4----4444-2--2-3-3--2-3-3--2-3-3---2222-3--------|
D|-3--4-4--3--4-4--3--4-4--0------2----3-3----3-3----3-3-0------3--------|

e|-----------------|
B|-----------------|
G|-444---------444-|
D|-xxx-2--2--2-xxx-|x4
A|-222-2--2--2-222-|
D|-----2--2--2-----|

e|-----------------------------------------------------------------------------|
B|-----------------------------------------------------------------------------|
G|--------------------------------------4-4-4----------------------------------|
D|------------------------------1--xxx--x-x-x--Last time do this>--9-8--5-4-3--|
A|------------------------------1--xxx--3-3-3----------------------9-8--5-4-3--|x4
D|-0-5h8p0--3h6p0--2h3p0--1h2p0-1--xxx-----------------------------9-8--5-4-3--|

e|--------------------------------------------------------------------------------|
B|--------------------------------------------------------------------------------|
G|-----------------------------------4-4-4----------------------------------------|
D|-0-8-0-7-0-6-0-5-0-4-------1--000--x-x-x-----Last time do this>--9-8--5-4-3--1b-|
A|-0-8-0-7-0-6-0-5-0-4-------1--000--3-3-3-------------------------9-8--5-4-3--1b-|x4]
D|-0-8-0-7-0-6-0-5-0-4-2h3p0-1--000--------------------------------9-8--5-4-3--1b-|  
 PM. . . . . . . . . .          ...                                                  



************************************

| /   slide up
| \   slide down
| h   hammer-on
| p   pull-off
| ~   vibrato
| <>  natural harmonic
| x   Mute note
| b   Bend
| pb  Pre-bend
| br  Bend release
| pbr Pre-bend release
| brb Bend release bend

************************************

            
            
Suggest correction
Creating personal tab
Creating personal tab
You can edit any tab online and save it as your Personal.

You can edit, replace or remove any tab part or add personal notes – all changes will be seen only by you.

Personal tabs can be accessed anytime from any device, even offline.
Learn more »
Give kudos to tab author, rate the tab!
1 2 3 4 5
comments
print report bad tab
guest
You may want to rate the tab now too:
select rating
Wanna post a correction for this tab? Suggest correction