Oops, an error
Loading. Please wait.

The Broken Vow bass

28 views 3 this week
no commentswrite comment
1 2 3 4 5
3 more votes to show rating
add to favorites
×
Save as Personal and add changes to this tab that will be seen only by you. Learn more ›
×
You can save this tab as Personal to edit and correct it or add notes. All changes will be seen only by you. Learn more »
launch autoscroll
font size
0
reset
guitar tuner
edit
Autoscroll
slow
fast
+/-
esc
set tempo
stop
ARTIST: Converge
Song: The broken vow
Tabbed by: Ivan Garcia 
Credits: Converge
Tuning C (C,G,C,F)

[Intro]
F|-----------------------------------------------|
C|-----------------------------------------------|
G|-1/4-4-4-4-4-4-1/4-1--1/4-4-4-4-4-4-1-4-5------|
C|--------------0------0-------------0-----------|

F|-----9------9------9------9------------------------------------|
C|-7h8--8-7h8--8-7h8--8-7h8--8-2h3-0h5-2h3-0h5-2h3-0h5-2h3-0h5---|
G|---------------------------------------------------------------|
C|----0--0---0--0---0--0---0--0---0---0---0---0---0---0---0---0--|

F|---------------------------------------------------|
C|-----------------2h3-0h5-2h3-0h5-2h3-0h5-2h3-0h5---|
G|---------------------------------------------------|
C|--0-0-0---0-0-0-----0---0---0---0---0---0---0---0--|

F|----------------------------------------------------------------|
C|----------------------------------------------------------------|
G|----------------------------------------------------------------|
C|-0-0-0---0-0-0--7-7-7---7-7-7-----------------------------------|

chaotic part
F|-------------------|
C|-------------------|
G|-------------------|
C|-0-0-0-0-0-0-0-0---|

just figure out the timings in this last part 
F|------------------------------------------------------------|
C|------------------------------------------------------------|
G|------------------------------------------------------------|
C|-000000000000000000000000000---8-6--------------------------|

            
            
Suggest correction
Creating personal tab
Creating personal tab
You can edit any tab online and save it as your Personal.

You can edit, replace or remove any tab part or add personal notes – all changes will be seen only by you.

Personal tabs can be accessed anytime from any device, even offline.
Learn more »
Give kudos to tab author, rate the tab!
1 2 3 4 5
comments
print report bad tab
guest
Wanna post a correction for this tab? Suggest correction