Oops, an error
Loading. Please wait.

Do You Hear What I Hear solo tab

5,301 views 3 this week
1 commentread comment
1 2 3 4 5
2 more votes to show rating
add to favorites
×
Save as Personal and add changes to this tab that will be seen only by you. Learn more ›
×
You can save this tab as Personal to edit and correct it or add notes. All changes will be seen only by you. Learn more »
launch autoscroll
font size
0
reset
how to read this tab
guitar tuner
edit
Autoscroll
slow
fast
+/-
esc
set tempo
stop
Artist: Copeland
Song: "Do You Hear What I Hear?"
Album: Happy Christmas Vol. 4
Label: The Militia Group
Year: 2005

Standard Tuning: eADGBE

This is the little solo part aside from the chords. It plays in the beginning and 
other parts in the song, listen for it.

( ) = Ghost Note

-------------0------------------0----------------|
-------2---0--------------2---0--------[repeat]--|
-----2---2-----2--------2---2-----2--------------|
--4--------------(4)-4---------------------------|
-------------------------------------------------|
-------------------------------------------------|


You can play the ghost note if you want. He does in the song, but it's not necessary.

            
            
Suggest correction
Creating personal tab
Creating personal tab
You can edit any tab online and save it as your Personal.

You can edit, replace or remove any tab part or add personal notes – all changes will be seen only by you.

Personal tabs can be accessed anytime from any device, even offline.
Learn more »
Give kudos to tab author, rate the tab!
1 2 3 4 5
comments
print report bad tab
1 comment total.
0 reply
nothin7 308 Jun 16, 2006 02:43 PM

It's correct except for the third note:
-------0-----0------------0-----0----------------|
-----------0------------------0--------[repeat]--|
-----2---2-----2--------2---2-----2--------------|
--4--------------(4)-4---------------------------|
-------------------------------------------------|
-------------------------------------------------|

guest
You may want to rate the tab now too:
select rating
Wanna post a correction for this tab? Suggest correction