Oops, an error
Loading. Please wait.

Depth Of Her Smile tab

by Coral
37 views 1 this week
no commentswrite comment
1 2 3 4 5
3 more votes to show rating
add to favorites
×
Save as Personal and add changes to this tab that will be seen only by you. Learn more ›
×
You can save this tab as Personal to edit and correct it or add notes. All changes will be seen only by you. Learn more »
launch autoscroll
font size
0
reset
how to read this tab
guitar tuner
edit
Autoscroll
slow
fast
+/-
esc
set tempo
stop
The Coral - Depth Of Her Smile (b-side from the Being Somebody Else 7" vinyl single)
https://www.youtube.com/watch?v=gOTQWtziE-0

Tempo = 110

Rhythm Guitar
Capo on 4th fret

     Em(G#m)  Bm(D#m)  C(E)  D(F#)  G(B)  Am(C#m)  F#m(A#m)
e|----0--------2--------0----2------3-----0--------2-------|
B|----0--------3--------1----3------3-----1--------2-------|
G|----0--------4--------0----2------0-----2--------2-------|  Relative to capo
D|----2--------4--------2----0------0-----2--------4-------|
A|----2--------2--------3-----------2-----0--------4-------|
E|----0-----------------------------3--------------2-------|

N.B.  No capo on lead guitar


[Intro]

  Em                                         Bm
e|--11-------11-------11-------11-----------|-----------------------------------------|
B|-----12-------12-------12-------12--------|-------------11----14-14--12--11---------|
G|--------13-------13-------13-------13-----|------11---------------------------------|
D|------------------------------------------|--13---------------------------------13--|
A|------------------------------------------|-----------------------------------------|
E|------------------------------------------|-----------------------------------------|


  C                                          Bm
e|----------12-------12h14p12---------------|----11-----------------------------------|
B|-------------12------------12h14p12-------|----11-----------------------------------|
G|-------13------------------------------13-|---------11----13-13----11---------------|
D|--/14-------------------------------------|-13------13----14-14----13---------------|
A|------------------------------------------|-----------------------------------------|
E|------------------------------------------|-----------------------------------------|


[Verse 1]

Verse riff: x2

  Em                                        Bm
e|-------11--------------------------------|------------------------------------------|
B|------------14---12---11-----------------|-----------------14--14----12----11-------|
G|-(13)------------------------13----11----|-(11)---------------------------------11--|
D|-(13)------------------------------13----|-(13)-------------------------------------|
A|-----------------------------------------|------------------------------------------|
E|-----------------------------------------|------------------------------------------|


  C                                          Bm
e|----------12-----12h14p12-----------------|------11---------------------------------|
B|-------------12----------12h14p12---------|------11---------------------------------|
G|-------13---------------------------13----|-----------------11---13-13----11--------|
D|--/14----------------------------------14-|-13--------------13---14-14----13--------|
A|------------------------------------------|-13--------------------------------------|
E|------------------------------------------|-----------------------------------------|


(Bm)     Em                            Bm
In  the  depth of her smile  The sweet-ness began  
         C                             Bm
 Like li-es told         At the end of day
 
         Em                            Bm       
         Way across the room     Where Sara plays its tune
         C                             Bm
She whis-pers the words      I long to say

         C                             D
    Whis-pers   the words   I  long to say
      e|---12-----------12-------12---|-14-------14-------14-------14------14---|
      B|--------12---------12---------|----14-------14-------14-------14--------|
      G|-13---------13--------13------|-------15-------15-------15-------15-----|
      D|-14---------------------------|-----------------------------------------|
      A|-14---------------------------|-----------------------------------------|
      E|------------------------------|-----------------------------------------|


[Chorus]

  G                                       Am
    Follow   me down    Through       the  reefs and the   crowns         Where   the
e|-------7---9---9s11--------------------|----9-----------12---11---9----------------|
B|-------7---------------9s7-------------|----9-------------------------12---11---9--|
G|----8----------------------------------|-------------------------------------------|
D|----9----------------------------------|-------11----------------------------------|
A|---------------------------------------|-------11----------------------------------|
E|---------------------------------------|-------------------------------------------|

  D                                       G
    ocean   it    clings     to     the   sky.                              Like    a
e|----9----------------------------------|-------------------------------------------|
B|----11-----------12-----11-----9-------|---7------------9---11---12----------------|
G|----11----9------11-----9------9-------|---8------------9---9----11----------------|
D|-11------------------------------------|--------9----------------------------------|
A|-9-------------------------------------|--------9----------------------------------|
E|---------------------------------------|-------------------------------------------|

  G                                       Am
  moth to  the    light        I   would  fly through the night.
e|----7-----------9p7--------------------|---------9-------------12---11---9---------|
B|----7---------------9p7----------------|-------------9-----------------------9-----|
G|--------8------------------------------|------9------------------------------------|
D|--------9------------------------------|-/11---------------------------------------|
A|---------------------------------------|-------------------------------------------|
E|---------------------------------------|-------------------------------------------|

  D                                       G
  To  hide  in   the  depth of    her     smile
e|----------------------9----------------|--------7----------------------------------|
B|----11--------------------12---9---11--|---------------7---------------------------|
G|-------------11------------------------|-----8----------------9-----11-----12------|
D|-------------11------------------------|-9--------------------9-----9------11------|
A|-9-------------------------------------|-------------------------------------------|
E|---------------------------------------|-------------------------------------------|

  Am                                      G
            in    the  depth of   her     smile
e|---------------------------------------|--------7-------------7h9------------------|
B|--12---11---9--------------------------|---------------7---------------7h9---------|
G|----------------11---9---8---6---8-----|-----8-------------------------------------|
D|---------------------------------------|-9-----------------------------------------|
A|---------------------------------------|-------------------------------------------|
E|---------------------------------------|-------------------------------------------|

  Am                                      G                  F#m
            in    the  depth of   her     smile
e|---------------------------------------|--------7----------------------------------|
B|--12---11---9--------------------------|--------------------6----------------------|
G|----------------11---9---8---6---8-----|-----8--------------6----------------------|
D|---------------------------------------|-9------------------8----------------------|
A|---------------------------------------|-------------------------------------------|
E|---------------------------------------|-------------------------------------------|


[Verse 2]  As before

I'm sick of my street
Where the unspoken meet
To pawn the paths
They had to play

The back of her mind
And the dreams left behind
She whispers the words
They long to say
Whispers the words
They long to say


[Chorus]  As before

Follow me down
Through the reefs
And the crowns
Where the ocean
It clings to the sky
Like a moth to the light
I would fly through the night
To hide in the depth of her smile
In the depth of her smile
In the depth of her smile


[Solo]

Play twice:

  Em                                    Bm
e|--7-----6-----4----------------------|---5--------------------------------------|
B|--------------------7-----4----5--7--|--------7-----5-----4-----2-----4-----5---|
G|-------------------------------------|------------------------------------------|
D|-------------------------------------|------------------------------------------|
A|-------------------------------------|------------------------------------------|
E|-------------------------------------|------------------------------------------|
                                                                            | Play only on second pass
  C                                     Bm                                  |D
e|-------------------------------------|------------------------------------|-14-----14-----14----14-----14|
B|--5h4--------------------------------|---5h4------------------------------|---14-----14----14-----14-----|
G|----------6h4---------3----4---------|---------6-----4-----3-----4-----5--|-----15-----15----15-----15---|
D|-----------------6-------------------|------------------------------------|------------------------------|
A|-------------------------------------|------------------------------------|------------------------------|
E|-------------------------------------|------------------------------------|------------------------------|


[Chorus]  As before

Follow me down
Through the reefs
And the crowns
Where the ocean
It clings to the sky
Like a moth to the light
I would fly through the night
To hide in the depth of her smile
In the depth of her smile
In the depth of her smile


[Outro]

Play intro and verse riff and chords x1


End on:

  D                                         Em
e|-14-------14-------14-------14------14---|-11----------------------------------------|
B|----14-------14-------14-------14--------|-12----------------------------------------|
G|-------15-------15-------15-------15-----|-13----------------------------------------|
D|-----------------------------------------|-13----------------------------------------|
A|-----------------------------------------|-11----------------------------------------|
E|-----------------------------------------|-------------------------------------------|



************************************

| (n)  Ghost note
| h    Hammer-on
| p    Pull-off
| /    Slide up
| s    Slide

************************************

            
            
Suggest correction
Creating personal tab
Creating personal tab
You can edit any tab online and save it as your Personal.

You can edit, replace or remove any tab part or add personal notes – all changes will be seen only by you.

Personal tabs can be accessed anytime from any device, even offline.
Learn more »
Give kudos to tab author, rate the tab!
1 2 3 4 5
comments
print report bad tab
guest
You may want to rate the tab now too:
select rating
Wanna post a correction for this tab? Suggest correction