Oops, an error
Loading. Please wait.

Moving Pictures tab

823 views 15 this week
no commentswrite comment
1 2 3 4 5
2 more votes to show rating
add to favorites
×
Save as Personal and add changes to this tab that will be seen only by you. Learn more ›
×
You can save this tab as Personal to edit and correct it or add notes. All changes will be seen only by you. Learn more »
launch autoscroll
font size
0
reset
how to read this tab
guitar tuner
edit
Autoscroll
slow
fast
+/-
esc
set tempo
stop
Author
Difficulty
-------------------------------------------------------------------------------
                             MOVING PICTURES - Corey Smith
-------------------------------------------------------------------------------
Tabbed by: KL 
Tuning: Standard
Based on video for Songsmith Weekly: https://www.youtube.com/watch?v=tFu3nHRbSIM


Intro (x4)/Verse (x16):

      C          G
e|------------------------------------|
B|-------5----------------------------|
G|-------5-----------0----------------|
D|-----5------0----0------------------|
A|---3------2-------------------------|  
E|---------------3--------------------|

Chorus ("But all our used-to -be's, all our once-upon-a-time’s")
       C         G             Am            F
e|------------------------------------------------------|
B|-----5-----------------------1------------------------|
G|-----5---------4-------------2--------------2---------|
D|---5-----------5-----------2----------------3---------|  x6
A|-3-------------5---------0------------------3---------|
E|-------------3----------------------------1-----------|

Chorus Outro ("You’re still the leading role in my head full of moving pictures....")
       Dm         G       F        G
e|-----1-------------------------------------------|
B|-----3-------------------------------------------|
G|---2--------------4---------2---------4----------| x1
D|-0----------------5---------3---------5----------|
A|------------------5---------3---------5----------|
E|---------------3--------1---------3--------------|


Bridge ("Pictures of you falling onto my chest....")
      Am       Bb       F
e|---------------------------------------------------------------------|
B|----1--------3-------------------------------------------------------|
G|----2--------3------------2-----0h2----------------2-----0h2---------| x3
D|----2--------3------------3-----3------------------3-----3-----------|
A|----0--------1----------3-----3--------3---------3-----3-------------|
E|----------------------1-----------------------1----------------------|

      Am         Bb          G
e|---------------------------------------------------------------------|
B|---1----------3-----------3------------------------------------------|
G|---2----------3-----------0------------------------------------------|
D|---2----------3-----------0------------------------------------------|
A|---0----------1-----------2------------------------------------------|
E|--------------------------3------------------------------------------|

Verse 1:
I looked at your photograph album,
Clicked through your Facebook page.
I hoped I might find at least one of me and you,
Back in our puppy love days.
You probably filed 'em in your trash can.
Hell, I wouldn’t blame you if you did.
I was young and dumb, not worth the kisses that you gave me.
I was probably easy to forget.

Chorus:
But all our used-to -be's, all our once-upon-a-time’s,
Play on a silver-screen somewhere in the back of my mind.
You keep showing up, like a Hollywood fixture.

Chorus Outro:
You’re still the leading role in my head full of moving pictures.
Moving pictures.

Verse 2:
No, your face hasn’t faded,
Like all the other girls' have,
And every time I swear I’m getting on with my life,
A thought of you'll stab me in the back.
Then it's high definition,
Full-color in a flash:
The emerald in your eyes against the champagne of the sunset
On the hood of that blue Chevy that I had.

Chorus:
And all our used-to -be's, all our once-upon-a-time’s,
Play on a silver screen somewhere in the back of my mind.
You keep showing up, like a Hollywood fixture.

Chorus Outro:
You’re still the leading role in my head full of moving...

Bridge:
Pictures of you falling onto my chest,
Whispering my name under your breath,
The promise on your finger that I couldn’t keep,
And the hurt in your eyes rolling onto your cheeks,
When you threw it back at me.

Chorus:
All our used-to -be's, all our once-upon-a-time’s,
Play on a silver screen somewhere in the back of my mind.
You keep showing up, like a Hollywood fixture.
You’re still the leading role in my head full of moving pictures.
Moving pictures.

Verse 3:
I looked at your photograph album,
Clicked through your Facebook page.
I noticed you were single,
Couldn’t help but wonder if,  I might get another chance with you
Someday.


************************************

| /   slide up
| \   slide down
| h   hammer-on
| p   pull-off
| ~   vibrato
| +   harmonic
| x   Mute note
| b   Bend
| pb  Pre-bend
| br  Bend release
| pbr Pre-bend release
| brb Bend release bend

************************************

            
            
Suggest correction
Creating personal tab
Creating personal tab
You can edit any tab online and save it as your Personal.

You can edit, replace or remove any tab part or add personal notes – all changes will be seen only by you.

Personal tabs can be accessed anytime from any device, even offline.
Learn more »
Give kudos to tab author, rate the tab!
1 2 3 4 5
comments
print report bad tab
guest
You may want to rate the tab now too:
select rating
Wanna post a correction for this tab? Suggest correction