Oops, an error
Loading. Please wait.

Bother chords

9,296 views 9 this week
6 commentsread comments
1 2 3 4 5
x 3
add to favorites
×
Save as Personal and add changes to this tab that will be seen only by you. Learn more ›
×
You can save this tab as Personal to edit and correct it or add notes. All changes will be seen only by you. Learn more »
launch autoscroll
font size
0
reset
transpose
0
reset
simplify chords
display chords
guitar tuner
edit
Autoscroll
slow
fast
+/-
esc
set tempo
stop
Author
Strumming
There is no strumming pattern for this song yet. and get +5 IQ
                                 Corey Taylor - Bother
                                    Spiderman OST

Tabbed by ZeRo (stark_zero@yahoo.com)

I've heard this song only couple of times - so sorry if there's something wrong 
(sure there is something) but the idea is right, I'm sure

Tuning Eb (1/2 step down)

chords used:
       Em   D    B#   C5   G
   Eb|-7----5----x----3----3-|   I'm not possitive on what
   Bb|-8----7----7----5----3-|   fret to use for B# and C
   Gb|-9----7----8----5----4-|   chords
   Db|-9----7----9----5----5-|
   Ab|-7----5----9----3----5-|
   Eb|-x----x----7----x----3-|
	
intro: 

   Eb|-7--5--------|---7--5--------|   
   Bb|-8--7/8\7-5--|---8--7/8\7-5--|   
   Gb|-9--7------7-|---9--7------7-| x3
   Db|-9--7--------|--9---7--------|
   Ab|-7--5--------|--7---5--------|
   Eb|-------------|---------------|
      -------------              
     play this part
     only for the 1st time

Verse: ("I wish I was too dead to cry...")
   
Eb|-7--5-|----------|----5---------|-7--5-|----------333----
Bb|-8--7-|----------|----7/8\7-5-5-|-8--7-|----------333----
Gb|-9--7-|-77777777-|-9--7------7--|-9--7-|-77777777-444-77-
Db|-9--7-|-77777777-|-9--7---------|-9--7-|-77777777-555-77-
Ab|-7--5-|-55555555-|-7--5---------|-7--5-|-55555555-555-55-
Eb|------|----------|--------------|------|----------333----
    x2          		      x2	      

Chorus: ("You don't need to bother...")

    Em  D  Em  B#
    Em  D  C   D

Intro:

Verse2: ("I wish I was too dead to care...")

It goes mostly the same - listen to song 
But there's a some kind of a bridge after the 2nd verse

Bridge: ("I wish I had a reason...")

Em  B#  C  D  (B# here is played with barre on the 3rd fret)

Chorus:

there's a little piece with a solo straight after the chorus

Verse3: ("Wish I died instead of lived...")

Chorus: several times

Intro:  end on Em

That's it........ have fun.......

			ZeRo (stark_zero@yahoo.com)

            
            
Suggest correction
Creating personal tab
Creating personal tab
You can edit any tab online and save it as your Personal.

You can edit, replace or remove any tab part or add personal notes – all changes will be seen only by you.

Personal tabs can be accessed anytime from any device, even offline.
Learn more »
Give kudos to tab author, rate the tab!
1 2 3 4 5
comments
print report bad tab
6 comments total. Showing first comments.
0 reply
JasonC 10 Jul 12, 2002 08:00 PM

Hey ....i think it sounds pretty good....i'm pretty sure ther are errors...but i cant figure anything out by ear so i'm not ganna complain....

0 reply
JasonC 10 Jul 12, 2002 08:00 PM

hey it's me again...i think it sounds better if you do this at the beggining

X1 x3
-7--5-------------| |7--7-------------|
-8--7-7h8p7-------| |8--7-7h8p7-------|
-9--7------9p7----| |9--7-------9p7---|
-9--7---------9-9-| |9--7----------9-9|
-7--5-----------7-| |7--7------------7|
-x--x-------------| |x--x-------------|


I have never tabbed in my life and this is the first thing ive ever even attempted to tab out so it's probably completly wrong....but i think it sounds pretty good anyway

-JasonC a_prfect_tool@hotmail.com

0 reply
ibikinz 20 May 14, 2005 08:00 PM

okay

guest
You may want to rate the tab now too:
select rating
Wanna post a correction for this tab? Suggest correction