Oops, an error
Loading. Please wait.

Another Rainy Day chords

version 2
version 2

Whole song

11,074 views 12 this week
2 commentsread comments
1 2 3 4 5
x 7
add to favorites
×
Save as Personal and add changes to this tab that will be seen only by you. Learn more ›
×
You can save this tab as Personal to edit and correct it or add notes. All changes will be seen only by you. Learn more »
launch autoscroll
font size
0
reset
transpose
0
reset
simplify chords
display chords
guitar tuner
edit
Autoscroll
slow
fast
+/-
esc
set tempo
stop
Strumming
There is no strumming pattern for this song yet. and get +5 IQ
   Bm7   E9   Am7  D9
e---x-----x-----x---x-|
B---7-----7-----5---5-|
G---7-----7-----5---5-|
D---7-----6-----5---4-|
A---x-----7-----x---5-|
E---7-----x-----5---x-|

Intro: Bm7/E9/Am7/D9  x2


Bm7             E9
    I got taken in

              Am7
We feasted on olives from the fridge

   D9
We stood alone everyday

Bm7                  E9
    We made love all afternoon

         Am7            D9  D9/C
'Til the stars went blue

Bm7
You wrote ballet

E9                          Am7
We dined on oysters and champagne

                     D9
That's what it seemed like

      Bm7                 E9
We connect in so many ways

         Am7       D9
So easy, I must say

D9/C     Bm7      E9
Why am I so shy around you?

Am7             D9
Why am I so shy?

D9/C     Bm7            E9
Why do I take care to astound you?

Am7               D9  D9/C
Why do I even try?

Bm7               E9
    Another rainy day

              Am7
We sat inside by the radiator

                       D9
Watching old black and white films

Where everybody sang

Bm7                  E9
    You played in my solitude

           Am7           D9  D9/C
Didn't get dressed 'til 2

Bm7
The rain says all

E9                         Am7
I wrote this song on my guitar

                   D9
But it didn't turn out right

D9/C          Bm7                 E9
So we just connected in other ways

         Am7       D9
So easy, I must say

D9/C     Bm7      E9
Why am I so shy around you?

Am7             D9
Why am I so shy?

D9/C     Bm7            E9
Why do I take care to astound you?

Am7               D9
Why do I even try?

D9/C     Bm7      E9
Why am I so shy around...?

       Am7      D9
Oh Why am I so shy?

D9/C     Bm7       E9
Why do I take care...?

         Am7      D9  D9/C
Why do I even try?

Outro: Bm7/E9/Am7/D9 x 2

last gtr chord: Bm7. (If you want to play the other instrument part)

Melody that comes up alot
e---------------------------------------------------|
B----------8--10-----12-10-8------------------------|
G--11--11---------9-----------11-7-7-9-11-----------|
D---------------------------------------------------|
A---------------------------------------------------|
E---------------------------------------------------|

End accordion thing:
e---------------------------------------------------|
B---------------------------------------------------|
G----4-4---4-4---4-4---5-5---2-2---2-2---2-2---2-2--|
D----4-4---4-4---6-6---6-6---2-2---2-2---4-4---4-4--|
A--5-----5-----5-----5-----3-----3-----3-----3------|
E---------------------------------------------------|

OR UP AN OCTAVE

e----7-7---7-7---7-7---7-7---5-5---5-5---5-5---5-5--|
B----7-7---7-7---9-9---9-9---5-5---5-5---7-7---7-7--|
G--7-----7-----7-----7-----5-----5-----5-----5------|
D---------------------------------------------------|
A---------------------------------------------------|
E---------------------------------------------------|

            
            
Suggest correction
Creating personal tab
Creating personal tab
You can edit any tab online and save it as your Personal.

You can edit, replace or remove any tab part or add personal notes – all changes will be seen only by you.

Personal tabs can be accessed anytime from any device, even offline.
Learn more »
comments
print report bad tab
2 comments total.
+1 reply
rahoo 40 Jun 18, 2010 07:34 PM

Sorry guys! I can't believe I typed the wrong frets for the Am7 chord I gave you. It should read as follows:

e|-x-
B|-5-
G|-5-
D|-5-
A|-x-
E|-5-

0 reply
shaina7711 10 Sep 14, 2010 04:45 AM

perfect thank you :D

guest
You may want to rate the tab now too:
select rating
Wanna post a correction for this tab? Suggest correction