Oops, an error
Loading. Please wait.

Green Aphrodisiac chords

2,509 views 15 this week
no commentswrite comment
1 2 3 4 5
x 4
add to favorites
×
Save as Personal and add changes to this tab that will be seen only by you. Learn more ›
×
You can save this tab as Personal to edit and correct it or add notes. All changes will be seen only by you. Learn more »
launch autoscroll
font size
0
reset
transpose
0
reset
simplify chords
display chords
guitar tuner
edit
Autoscroll
slow
fast
+/-
esc
set tempo
stop
Strumming
There is no strumming pattern for this song yet. and get +5 IQ
-------------------------------------------------------------------------------
                            Green Aphrodisiac - Corinne Bailey Rae
-------------------------------------------------------------------------------
Tabbed by:majorseventh
E-mail:cwarner3000@gmail.com

Tab at bottom is based off live version 
https://www.youtube.com/watch?v=Z7tJ7SDfDUM

The song sounds better to me playing only Bbmaj7 and Abmaj7 in the verse on guitar but it sounds like the 
Keyboard plays over Bbmaj7 Dm Abmaj7 Cm


Standard tuning
EADGBe
Chords:
Bbmaj7  6x7765
Dm      x57765 
Abmaj7  4x5543
Cm      x35543 
Gmaj7   3x4432

Cm7     8x8888  they frequently play a hammer on with this chord to Cm7add9 8x88810
F9      x8788x
Bb6/9   xx12-12-13-13
Dm9     10xx10-10-12 and x5355x
D7b9    x5454x and xx10-11x11
Cmaj7   x35453



[INTRO] Bbmaj7 Dm Abmaj7 Cm


[VERSE]
Bbmaj7
Laying in the grass in the afternoon
Dm                           Abmaj7   Cm
Something kind of magical in sunlight
Bbmaj7   
Flowers uncurl in the garden
Dm                               Abmaj7   Cm
Ships are coming up again; it's springtime
Bbmaj7
It's new like the day I saw your eyes
               Dm         
Green like the leaves, I'm falling in love again
           Abmaj7   Cm
It's a blue sky
Bbmaj7
Blossom leaf falls in a slow dance
Dm                          Abmaj7  Cm
Swaying got me in a trance; so high
          Gmaj7
Yes, I'll wait on you and I want to spend it with you


[CHORUS]
Cm7
Lost in your wonderland
F9                Bb6/9
Green aphrodisiac
Dm9
Kiss me, your lips taste of honey
D7b9
Songbirds and bees start a-hummin'
Cm7
Come to my wonderland
F9                Bb6/9
Green aphrodisiac
Dm9
The same thing that grows in the body
D7b9
Flows in me and you, ooh
          Cm7                                 F9
I want to go where all the rainbows start and flow


[VERSE]
Bbmaj7
Just when I thought it was not to be
Dm                         Abmaj7    Cm
Holiest of mysteries; it's all green
Bbmaj7                                Dm
And everything that I have planted is grown
              Abmaj7    Cm
And all I need is time, earth, water
        Gmaj7
and the sunlight....got to be


[CHORUS]
Cm7
Lost in your wonderland
F9                Bb6/9
Green aphrodisiac
Dm9
Kiss me, your lips taste of honey
D7b9
Songbirds and bees start a-hummin'
Cm7
Come to my wonderland
F9                Bb6/9
Green aphrodisiac
Dm9
The same thing that grows in the body
D7b9
Flows in me and you, ooh

      
[BRIDGE]
          Cm7                                 F9
I want to go where all the rainbows start and flow
                           Dm9
How could I know where the sun lives?
                           D7b9
How could I know you would take over my mind?
          Cm7                        F9
I want to know where the flowers all go
                  Bbmaj7
Cause I know that
            Abmaj7       Dm9    D7b9
The seed it grows in the garden all year round


[OUTRO]
Cm7
Lost in your wonderland (aphrodisiac)
F9               Bb6/9
Green aphrodisiac
Dm9             D7b9
I want to go with you
                     Cm7
Where it's green and all the flowers grow
        F9                     Bb6/9     Bbmaj7   Abmaj7
All the water flows, all the memories grow
     Dm9       D7b9
Just for the afternoon, but baby Oh

Cm7
Aphrodisiac
F9               Bb6/9
Green aphrodisiac
Dm9
Kiss me, your lips taste of honey
D7b9
Songbirds and bees start a-hummin'
Cm7
Lost in your wonderland 
F9                  Bb6/9
Green aphrodisiac
Bmaj7    Abmaj7   Cmaj7  D7b9
Ooh, ooh... 

Cm7
na na na na na
F9 Bb6/9
na na na na na na
Dm9 
na na na na na na
D7b9
na na na na na na

Cm7
F9 Bb6/9
Bbmaj7 Abmaj7
Dm9 D7b9

Cm7
F9 Bb6/9
Dm9
D7b9

Cm7
F9 Bb6/9
Bbmaj7 Abmaj7
Dm9 D7b9

Cm7
F9 Bb6/9
Dm9
D7b9

Cm7
F9 Bb6/9
Bbmaj7 





Play with live version at: https://www.youtube.com/watch?v=Z7tJ7SDfDUM

Chorus (1:16)
     Cm7add9               F9           Bb6/9   Dm9                   D7b9
e|--9/10-10-10--10--10------------------13\---11/12-12-12--12--12---10/11-11-11--11--11--------|
B|--7/8--8--8---8---8----7/8-8-8--8--8--13\----9/10-10-10--10--10------------------------------|
G|--7/8--8--8---8---8----7/8-8-8--8--8--12\----9/10-10-10--10--10---10/11-11-11--11--11--------|
D|-----------------------6/7-7-7--7--7--12\--------------------------9/10-10-10--10--10--------|
A|-----------------------7/8-8-8--8--8---------------------------------------------------------|
E|--7/8----------------------------------------------------------------------------------------|
 "Lost in your wonderland, Green aprhodisiac, Kiss me your lips taste of honey, 
  song birds and bees get a hummin"

     Cm7add9               F9           Bb6/9   Dm9                 D7b9
e|--9/10-10-10--10--10------------------13\---11/12-12-12--12--12---10/11-11-11--11--11--------|
B|--7/8--8--8---8---8----7/8-8-8--8--8--13\----9/10-10-10--10--10------------------------------|
G|--7/8--8--8---8---8----7/8-8-8--9--8--12\----9/10-10-10--10--10---10/11-11-11--11--11--------|
D|-----------------------6/7-7-7--7--7--12\--------------------------9/10-10-10--10--10--------|
A|-----------------------7/8-8-8--8--8---------------------------------------------------------|
E|--7/8----------------------------------------------------------------------------------------|
"Lost in your wonderland, Green aprhodisiac,te same thing that grows in the garden, 
grows in me and you"

      Cm7add9      F9
e|--9/10-10-10-10--8---------------------------------------------------------------------------|
B|--7/8--8--8--8---8---------------------------------------------------------------------------|
G|--7/8--8--8--8---8---------------------------------------------------------------------------|
D|-----------------7---------------------------------------------------------------------------|
A|-----------------8---------------------------------------------------------------------------|
E|--7/8----------------------------------------------------------------------------------------|
"I want to go want to go where all the rainbows start and flow"


Outro (3:48)
     Cm7add9                      F9                  Bb6/9   Dm9                 
e|--9/10-8h10--10--10p8--10-----9/10-8h10--10--10p8---13\---11/12-10h12--12--12p10--12---|
B|--7/8--8-----------------8----7/8-------------------13\----9/10-------------------10---|
G|--7/8--8------------------8---7/8-------------------12\----9/10-------------------10---|
D|------------------------------6/7-------------------12\--------------------------------|
A|------------------------------7/8------------------------------------------------------|
E|--7/8----------------------------------------------------------------------------------|

       D7b9
e|--10/11-11--11--11p10---18p16----------------------------------------------------------|
B|------------------------16-------------------------------------------------------------|
G|--10/11-11--11----------17-------------------------------------------------------------|
D|---9/10-11--11-------------------------------------------------------------------------|
A|---------------------------------------------------------------------------------------|
E|---------------------------------------------------------------------------------------|

      Cm7add9                F9                  Bbmaj7
e|--9/10-10-10--10--10\9---9/10-10-10--10--10\9--13--------------------------------------|
B|--7/8--8--8---8----8\7---7/8--8--8---8----8\7--15--------------------------------------|
G|--7/8--8--8---8----8\7---7/8--8--8---8----8\7--14--------------------------------------|
D|-----------------------------------------------15--------------------------------------|
A|---------------------------------------------------------------------------------------|
E|---------------------------------------------------------------------------------------|




************************************


| h   Hammer-on
| p   Pull-off
| /   Slide up
| \   Slide down


************************************

            
            
Suggest correction
Creating personal tab
Creating personal tab
You can edit any tab online and save it as your Personal.

You can edit, replace or remove any tab part or add personal notes – all changes will be seen only by you.

Personal tabs can be accessed anytime from any device, even offline.
Learn more »
comments
print report bad tab
guest
You may want to rate the tab now too:
select rating
Wanna post a correction for this tab? Suggest correction