Oops, an error
Loading. Please wait.

A Solas Con El Maestro bass

39 views 1 this week
no commentswrite comment
1 2 3 4 5
3 more votes to show rating
add to favorites
×
Save as Personal and add changes to this tab that will be seen only by you. Learn more ›
×
You can save this tab as Personal to edit and correct it or add notes. All changes will be seen only by you. Learn more »
launch autoscroll
font size
0
reset
guitar tuner
edit
Autoscroll
slow
fast
+/-
esc
set tempo
stop
A SOLAS CON EL MAESTRO: 1RA. VOZ MANDOLINA

INTRODUCCION:
1 -----2--2---3--5--666666-----00000--0--
2 --------------------------5------------
3 ---------------------------------------
4 ---------------------------------------

1 --1-3-555555--------0-1---3-------0-1-3--
2 -------------3-5--5-----5---1-1-5--------
3 -----------------------------------------
4 -----------------------------------------

1 ---0---0--8--6--5--3-3--5--111111-------
2 ----------------------------------------
3 ----------------------------------------
4 ----------------------------------------

primera estrofa:
A solas con el maestro....
1 --------1-0-----------0-1---5-3-8-6-5-3-5--
2 --1-3-5------5-444444-----5----------------
3 -------------------------------------------
4 -------------------------------------------

1 ------0-1--------------0---1--
2 --5-4------111111--4-5---0----
3 ------------------------------
4 ------------------------------

 pero más que mis problemas....  (escala)
1 --0----------:-----------1---1-5-3-----0-3-0-8-6-5-1-3-5-6-
2 ----5-4-5----:--5-1-3-5----5-------3-5---------------------
3 -------------:---------------------------------------------
4 -------------:---------------------------------------------

1 --5-3-0-1-----0-1---1-5-333333--5-6-5-0---------
2 ----------0-5-----5---------------------555555--
3 ------------------------------------------------
4 ------------------------------------------------

Coro:que te amo con todas....    de mi corazon...
1 ----0--2---3-5-66666--8-3-8-8-8-8-6-5-3-555555-3-5-3-1-0-1--
2 --5---5--5--------------------------------------------------
3 ------------------------------------------------------------
4 ------------------------------------------------------------

que mi vida...
1 ---0-1---3-----0-1-3-0-0-1---
2 -5-----5---1-5---------------
3 -----------------------------
4 -----------------------------

Señor te...
1 --3-5-6-8-6-5-5-666666-8-3-8-8-8-8-6-5-3-555555-3-5-3-1-0-1--
2 -------------------------------------------------------------
3 -------------------------------------------------------------
4 -------------------------------------------------------------

Llenas mi vida...
1 ---0-1---3-----0-1-3-0------
2 -5-----5---1-5--------------
3 ----------------------------
4 ----------------------------

Interludio lo mismo que la introducción y
2° estrofa igual que la primera.

Variación:
1 -------1-0-------000000-111111--
2 --0-0------55555----------------
3 --------------------------------
4 --------------------------------

1 ---------------------------------------------------
2 --3333333-3-1-0-1-0-1-0-1-3-(3-4)-3-1-3-1-0-0---0--
3 ----------------------------------------------5----
4 ---------------------------------------------------

1 --1-3-4-1-444444-6-6-4-3-6-888888-8-8-6-6-4-3-1-000000--
2 --------------------------------------------------------
3 --------------------------------------------------------
4 --------------------------------------------------------

Coro: Dios te amo con todas las...        yo te quiero...
1 --888888-10-5-10101010-8-7-5-77777-5-7-5-3-2-3-0-2-3-0-5--
2 ----------------------------------------------------------
3 ----------------------------------------------------------
4 ----------------------------------------------------------

1 ---0-2-3-5-2-2-3-5-7-8-10--
2 -3-------------------------
3 ---------------------------
4 ---------------------------

1 --8-7-7-888888-10-5-10101010-8-7-5-77777-
2 -----------------------------------------
3 -----------------------------------------
4 -----------------------------------------

Llenas mi vida...
1 -5-7-5-3-2-3-0-2-3-0-5----0-2-3-5-2--
2 -------------------------------------
3 -------------------------------------
4 -------------------------------------

final: Señor...
1 --000000----0-3-2-0------000000----0-3-2-0-----000000---
2 ----------2----------5-2---------2---------5-2----------
3 --------------------------------------------------------
4 --------------------------------------------------------

1 ---7-7-5-5-3-3-2-2-----000000---
2 --------------------5-----------
3 --------------------------------
4 --------------------------------

Doy gracias a Dios por haber escrito mi primera tablatura o tab.
para mandolina y tambien darle gracias a mi hermano por ayudarme
a sacarla ya que el toca mandolina... bendiciones y a practicarla
porque es un poco complicada xau

            
            
Suggest correction
Creating personal tab
Creating personal tab
You can edit any tab online and save it as your Personal.

You can edit, replace or remove any tab part or add personal notes – all changes will be seen only by you.

Personal tabs can be accessed anytime from any device, even offline.
Learn more »
Give kudos to tab author, rate the tab!
1 2 3 4 5
comments
print report bad tab
guest
Wanna post a correction for this tab? Suggest correction