Oops, an error
Loading. Please wait.

Templos Y Moradas bass

35 views 1 this week
no commentswrite comment
1 2 3 4 5
3 more votes to show rating
add to favorites
×
Save as Personal and add changes to this tab that will be seen only by you. Learn more ›
×
You can save this tab as Personal to edit and correct it or add notes. All changes will be seen only by you. Learn more »
launch autoscroll
font size
0
reset
guitar tuner
edit
Autoscroll
slow
fast
+/-
esc
set tempo
stop
templos y moradas : mandolina

intro:

1  --------------------------------0---------------
2  -------7-3-5-3---2-3-2--3---------0-0----(5)----
3  --5-5-------------------------------------------
4  -------------------------------------------------

1  ----5-3-3-1---0-1-0---------------
2  --------------------------3-555555
3  ---------------------------------------
4  ----------------------------------------

1  --3-5-666666--1-0---1-3---1-5----------
2  ---------------------------------------3-3---
3  ----------------------------------------------
4  ----------------------------------------------

1  -------------0----------------------------
2  -0-2-3--------55555-33333---(0)-----
3  -------------------------------------------
4  -------------------------------------------

1  ----------------------------------------
2  --0-2-3-2-0-2-333333333333-----
3  ----------------------------------------
4  ----------------------------------------                  Fin del intro

Esta golp?

1  -------------------------------0-1------------------
2  -------0-----3-2-3-2-3-5-----------55555------------
3  --3-5---------------------------------------55-----
4  -----------------------------------------------------
Si quiere?
1  -----------------0--------------
2  ------3-2-0-2-3-------5-3-2-5-3
3  --------------------------------
4  --------------------------------
El con ter..
1  -------------------0---------------0-3-------
2  -------0-------------5-3-2-3-5---------5-----
3  --3-5---------5------------------------------
4  ----------------------------------------------
Y si le abri?
1  -------1-0------------------------------
2  -----------------5-3-2-3-5-2-3333333
3  ----5------------------------------------
4  --------------------------------------------

 rapido....                        es que no sientes

1  --0---------0-1-3---------0-3-555555------3-5-3-1-555555
2  ----2-3-5----------2-3-5--------------------------------
3  --------------------------------------------------------
4  --------------------------------------------------------

                    Rapido:   como el estrundo


1  -------0-1-3-5-777777----7-8-7-5-77777
2  --3-5----------------------------------------------
3  -----------------------------------------------------
4  -----------------------------------------------------
       Pero al ent?        se humedecen?
1  --5-7-8----0-----1-3-5-----0-3-0-1----0---------------------------
2  --------------------------------------------5----2-333333--555555
3  ------------------------------------------------------------------
4  ------------------------------------------------------------------
   Somos templos...
1  --0------------------------0-1-0-0---------------------------
2  -----3-3------------3-5-------------5-5--3-3--------000000
3  -----------5-5---5-------------------------------5------------
4  -----------------------------------------------------------------
Esperando su venida
1  -----1-0---0--------------------0-1-33333333-
2  --5------5----5--3-3-2----3---------------------
3  ----------------------------------------------------
4  ----------------------------------------------------
              porque nada en este mundo
1  --1111-00000--0-1-333333
2  --------------------------------
3  --------------------------------
4  --------------------------------


1  -------------------0000000-11111-------
2  --55555-66666---------------------0-0--
3  ---------------------------------------
4  ---------------------------------------
De alaba...         de alaba?
----1-0--------------------------------3-33333
--5-----5--------------------2-2-5-5-----------
-------------------0-0-5-5----------------------
--------------------------------------------------

Se repite la mitad del intro

espero puedan practicar en sus casas
para que dios les bendiga y a multiplicar
esos talentos que dios nos a dado chauuu

De: Iglesia pentecostal Sendas Antiguas
               de Cerro Navia

            
            
Suggest correction
Creating personal tab
Creating personal tab
You can edit any tab online and save it as your Personal.

You can edit, replace or remove any tab part or add personal notes – all changes will be seen only by you.

Personal tabs can be accessed anytime from any device, even offline.
Learn more »
Give kudos to tab author, rate the tab!
1 2 3 4 5
comments
print report bad tab
guest
Wanna post a correction for this tab? Suggest correction