Oops, an error
Loading. Please wait.

World On Fire tab

79 views 1 this week
no commentswrite comment
1 2 3 4 5
3 more votes to show rating
add to favorites
×
Save as Personal and add changes to this tab that will be seen only by you. Learn more ›
×
You can save this tab as Personal to edit and correct it or add notes. All changes will be seen only by you. Learn more »
launch autoscroll
font size
0
reset
how to read this tab
guitar tuner
edit
Autoscroll
slow
fast
+/-
esc
set tempo
stop
Author
Hello, this is World on Fire tab, couldn't find this one on ultimate, so I posted it over here.

0:00-0:46

d|-------------------------------------------------------------------------|
A|-------------------------------------------------------------------------|
F|--9-9--9-9--9-9--9-9--7-7-7-7--------------------------------------------|
C|--9-9--9-9--9-9--9-9--7-7-7-7--5-7-5-7-5-7-5-7-7-5-----------------------|
G|--7-7--7-7--7-7--7-7--5-5-5-5--5-7-5-7-5-7-5-7-7-5-----------------------|
C|-------------------------------5-7-5-7-5-7-5-7-7-5-----------------------|

0:47-1:06

d|-------------------------------------------------------------------------|
A|-------------------------------------------------------------------------|
F|-7/9-7/9--5/3-5/3-------7/9-7/9-7~-5~------------------------------------|
C|-7/9-7/9--5/3-5/3-X-5-4-7/9-7/9-7~-5~---/5-4-----------------------------|
G|-5/7-5/7--7/5-7/5-X-5-4-5/7-5/7-5~-3~---------7--------------------------|
C|------------------X-5-4--------------------------------------------------|

In the end when lyrics is 'all the time'

d|-------------------------------------------------------------------------|
A|-------------------------------------------------------------------------|
F|-------------------------------------------------------------------------|
C|--7~--10~----------------------------------------------------------------|
G|--7~--10~----------------------------------------------------------------|
C|--7~--10~----------------------------------------------------------------|

1:07-1:33

d|-------------------------------------------------------------------------|
A|-------------------------------------------------------------------------|
F|--9-9--9-9--9-9--9-9--7-7-7-7--------------------------------------------|
C|--9-9--9-9--9-9--9-9--7-7-7-7--5-7-5-7-5-7-5-7-7-5-----------------------|
G|--7-7--7-7--7-7--7-7--5-5-5-5--5-7-5-7-5-7-5-7-7-5-----------------------|
C|-------------------------------5-7-5-7-5-7-5-7-7-5-----------------------|

1:33-1:52

d|-------------------------------------------------------------------------|
A|-------------------------------------------------------------------------|
F|-7/9-7/9--5/3-5/3-------7/9-7/9-7~-5~------------------------------------|
C|-7/9-7/9--5/3-5/3-X-5-4-7/9-7/9-7~-5~---/5-4-----------------------------|
G|-5/7-5/7--7/5-7/5-X-5-4-5/7-5/7-5~-3~---------7--------------------------|
C|------------------X-5-4--------------------------------------------------|

In the end when lyrics is 'all the time'

d|-------------------------------------------------------------------------|
A|-------------------------------------------------------------------------|
F|-------------------------------------------------------------------------|
C|--7~--10~----------------------------------------------------------------|
G|--7~--10~----------------------------------------------------------------|
C|--7~--10~----------------------------------------------------------------|

1:53-2:13

d|-------------------------------------------------------------------------|
A|-------------------------------------------------------------------------|
F|-------------------------------------------------------------------------|
C|--7p5h7-10-7p5h7-12------------------------------------------------------|
G|--7p5h7-10-7p5h7-12------------------------------------------------------|
C|--7p5h7-10-7p5h7-12------------------------------------------------------|

2:14-2:40

d|-------------------------------------------------------------------------|
A|-------------------------------------------------------------------------|
F|--9-9--9-9--9-9--9-9--7-7-7-7--------------------------------------------|
C|--9-9--9-9--9-9--9-9--7-7-7-7--5-7-5-7-5-7-5-7-7-5-----------------------|
G|--7-7--7-7--7-7--7-7--5-5-5-5--5-7-5-7-5-7-5-7-7-5-----------------------|
C|-------------------------------5-7-5-7-5-7-5-7-7-5-----------------------|

2:40-3:05

d|-------------------------------------------------------------------------|
A|-------------------------------------------------------------------------|
F|-7/9-7/9--5/3-5/3-------7/9-7/9-7~-5~------------------------------------|
C|-7/9-7/9--5/3-5/3-X-5-4-7/9-7/9-7~-5~------------------------------------|
G|-5/7-5/7--7/5-7/5-X-5-4-5/7-5/7-5~-3~------------------------------------|
C|------------------X-5-4--------------------------------------------------|

3:05-4:01 RHYTHM SECTION TO SOLO

d|-------------------------------------------------------------------------|
A|-------------------------------------------------------------------------|
F|-------------------------------------------------------------------------|
C|--2-2-10-10-7-7-10-14----------------------------------------------------|
G|--2-2-10-10-7-7-10-14----------------------------------------------------|
C|--2-2-10-10-7-7-10-14----------------------------------------------------|


Hell starts at 3:05.

SOLO

d|-------------------------------------------------------------------------|
A|-------------------------------------------------------------------------|
F|--12--12h14/11/12-12h14/11/12-12h14/11/16--------------------------------|
C|-------------------------------------------------------------------------|
G|-------------------------------------------------------------------------|
C|-------------------------------------------------------------------------|

d|-------------------------------------------------------------------------|
A|-------------------------------------------------------------------------|
F|--16p14/12-14p12/11-12p11/9-11p9/8-9p8/5-8p5/2/4--2b4-2b4-8~~------------|
C|-------------------------------------------------------------------------|
G|-------------------------------------------------------------------------|
C|-------------------------------------------------------------------------|

d|---19--------19--------19--------19-------19-----19----------------------|
A|------20-17-----20-17-----20 17----20-17----20-17--20-17-----------------|
F|-------------------------------------------------------------------------|
C|-------------------------------------------------------------------------|
G|-------------------------------------------------------------------------|
C|-------------------------------------------------------------------------|

d|---19--------19--------19--------19--------19-----19----19---------------|
A|---------20--------20--------20--------20------20----20------------------|
F|------17--------17--------17--------17-------17----17--------------------|
C|-------------------------------------------------------------------------|
G|-------------------------------------------------------------------------|
C|-------------------------------------------------------------------------|

d|---20-------20--------20--------20---------20-----20---------------------|
A|------22--------22--------22-------22---------22-----22------------------|
F|--------21--------21--------21-------21----------21-----21---------------|
C|-------------------------------------------------------------------------|
G|-------------------------------------------------------------------------|
C|-------------------------------------------------------------------------|

d|---19-------19-------19-------19-------19-----19-------------------------|
A|------17-16----17-16----17-16----17-16---17-16--17-16--------------------|
F|-------------------------------------------------------------------------|
C|-------------------------------------------------------------------------|
G|-------------------------------------------------------------------------|
C|-------------------------------------------------------------------------|

d|---19/22~~--22b24---19-20-22-20-19/17/20--19~-17~--/0--------------------|
A|-------------------------------------------------------------------------|
F|-------------------------------------------------------------------------|
C|-------------------------------------------------------------------------|
G|-------------------------------------------------------------------------|
C|-------------------------------------------------------------------------|

d|-------------------------------------------------------------------------|
A|--------------------------------------------------------------16-16-16-16|
F|--14-14-14-14-14-14-14-14-16-16-16-16-16-16-17-17-17-17-17-17------------|
C|-------------------------------------------------------------------------|
G|-------------------------------------------------------------------------|
C|-------------------------------------------------------------------------|

d|-------------------------------------------------------------------------|
A|-----------------------16-16-16-16-17-17-17-17-19-19-19-19-19------------|
F|--16-16-16-16-16-16-16---------------------------------------------------|
C|-------------------------------------------------------------------------|
G|-------------------------------------------------------------------------|
C|-------------------------------------------------------------------------|


[TAPPING PART]

d|--h19p15p12-h19p15p12-h19p15p12-h19p15p12-h19p15p12-h19p15p12-h19p15p12--|
A|-------------------------------------------------------------------------|
F|-------------------------------------------------------------------------|
C|-------------------------------------------------------------------------|
G|-------------------------------------------------------------------------|
C|-------------------------------------------------------------------------|


d|--h20p17p12-h20p17p12-h20p17p12-h20p17p12-h20p17p12-h20p17p12-h20p17p12--|
A|-------------------------------------------------------------------------|
F|-------------------------------------------------------------------------|
C|-------------------------------------------------------------------------|
G|-------------------------------------------------------------------------|
C|-------------------------------------------------------------------------|

d|--h17p14p12-h17p14p12-h17p14p12-h17p14p12-h17p14p12-h17p14p12-h17p14p12--|
A|-------------------------------------------------------------------------|
F|-------------------------------------------------------------------------|
C|-------------------------------------------------------------------------|
G|-------------------------------------------------------------------------|
C|-------------------------------------------------------------------------|



************************************

| h  Hammer-on
| p  Pull-off
| b  Bend
| /  Slide up
| ~  Vibrato 

************************************

            
            
Suggest correction
Creating personal tab
Creating personal tab
You can edit any tab online and save it as your Personal.

You can edit, replace or remove any tab part or add personal notes – all changes will be seen only by you.

Personal tabs can be accessed anytime from any device, even offline.
Learn more »
Give kudos to tab author, rate the tab!
1 2 3 4 5
comments
print report bad tab
guest
You may want to rate the tab now too:
select rating
Wanna post a correction for this tab? Suggest correction