Oops, an error
Loading. Please wait.

En Tu Ausencia tab

by Corvus
44 views 1 this week
no commentswrite comment
1 2 3 4 5
3 more votes to show rating
add to favorites
×
Save as Personal and add changes to this tab that will be seen only by you. Learn more ›
×
You can save this tab as Personal to edit and correct it or add notes. All changes will be seen only by you. Learn more »
launch autoscroll
font size
0
reset
how to read this tab
guitar tuner
edit
Autoscroll
slow
fast
+/-
esc
set tempo
stop
Esta una de las mejores baladas que tiene mi país con una de
las mejores Bandas ecuatorianas. Lo máximo Corvus

PARA UNA MUJER UNICA POR SIEMPRE Y PARA SIEMPRE.....T AMO MI HELLO KITTY


Intro:


e----------17-15--13-12-13-----------------------------------------   (x2)
B---14s15-------------------~15--18-17-15-----------------------~15-
G-----------------------------------------17-15-17-19--17-15-14----
D------------------------------------------------------------------
A-----------------------------------------------------------------
E-----------------------------------------------------------------


El intro es un arpegio con las notas que pongo a continuacion


Dm
El frió y la soledad
C
me invaden esta noche
A#
solo tu recuerdo
G            A
abriga mi corazón
Dm
Con tu ausencia
C                             A#
las estrellas se pintaron de tristeza
G         A
solo por tu amor


AQUÍ ENTRA LA DISTORCION
     C5            G5
e-----------------------------------------
B-----------------------------------------
G----5-----------------------------------
D----5--------------5-------------------
A----3--------------5------------------
E-------------------3-------------------
Tocaste mi corazón con música celestial

     A#5        F5
e-----------------------------------
B-----------------------------------
G-3--------------------------------
D-3--------------3-----------------------
A-1--------------3-----------------------
E----------------1-----------------------
emanando deseos que ya no volverán

    C5               G5
e---------------------------------
B---------------------------------
G----5----------------------------
D----5----------------5------------
A----3----------------5------------
E---------------------3------------
a veces es mas fácil  dejar de respirar

    A#5               A5
e---------------------------------
B---------------------------------
G----3----------------2------------
D----3----------------2------------
A----1----------------0------------
E---------------------------------
que tratar de olvidar sentimientos que no volverán

    D5                 F5
e----------------------------------
B----------------------------------
G----7------------------10-----------
D----7------------------10-----------
A----5------------------8------------
E-----------------------------------
En mis noches de sueños tratare de tocar tus labios de fuego

     G5                       A5
e---------------------------------
B---------------------------------
G----12------------------------14---
D----12------------------------14---
A----10------------------------12---
E---------------------------------
recorrer nuevamente tu cuerpo llegar a tu corazón

    D5               F5
e-------------------------------
B-------------------------------
G----7----------------10----------
D----7----------------10----------
A----5----------------8----------
E-------------------------------
desearía no despertar porque vuelve la maldita

     A#5    A5
e-----------------------------
B-----------------------------
G----3-------2-----------------
D----3-------2-----------------
A----1-------0-----------------
E-----------------------------
soledad      Y A MI lado no estas?


Cualquier comentario o sugerencia me escriben al mail
Gracias
¡!!!Que Viva Ecuador!!!!!!

            
            
Suggest correction
Creating personal tab
Creating personal tab
You can edit any tab online and save it as your Personal.

You can edit, replace or remove any tab part or add personal notes – all changes will be seen only by you.

Personal tabs can be accessed anytime from any device, even offline.
Learn more »
Give kudos to tab author, rate the tab!
1 2 3 4 5
comments
print report bad tab
guest
Wanna post a correction for this tab? Suggest correction