Oops, an error
Loading. Please wait.

Tanta Magia tab

by Coti
20 views 1 this week
no commentswrite comment
1 2 3 4 5
3 more votes to show rating
add to favorites
×
Save as Personal and add changes to this tab that will be seen only by you. Learn more ›
×
You can save this tab as Personal to edit and correct it or add notes. All changes will be seen only by you. Learn more »
launch autoscroll
font size
0
reset
how to read this tab
guitar tuner
edit
Autoscroll
slow
fast
+/-
esc
set tempo
stop
____ acordes ____________
|                       |
| A:    002220          |
| E:    022100          |
| F#m:  244222          |
| D:    000232          |
| C#:   446664          |
| Bm:   224432          |
|_______________________|


[intro]:
         D           E              F#m             D
E-||------------------------|----------------------------|
B-||-5h7-5------------------|-5h7-7s10----5h7-5----------|
G-||----------4h6-----------|--------------------7-------|
D-||---------------7-6------|-----------------------7----|
A-||------------------------|----------------------------|
E-||------------------------|----------------------------|

         A           E            C#             F#m
E-||------------------------|-------------------------|
B-||-5h7-5------------------|-------------------------|
G-||----------4h6-----------|---4-4h6--6s7s6--4-------|
D-||---------------7-6------|-7------------------7----|
A-||------------------------|-------------------------|
E-||------------------------|-------------------------|

              Bm              D       E      A
E-||------------------------|----------------------------------|
B-||------------------------|----------------------------------|
G-||-6--4-----4-------------|-7-6---7-6----------6s7s6---------|
D-||-------7---------4------|-----7------7s9s7---------7s9s7---|
A-||------------------------|----------------------------------|
E-||------------------------|----------------------------------|


      A                               E
Cada vez que pienso en todo lo que hicimos
      F#m                          D
Cada vez que te recuerdo en un rincón
          A                       E
Y aunque ya quedé fuera de tu destino
                    F#m                     D
Siempre que respiro,    siempre que respiro
                       A
Siempre es por tu amor


    A
E-||...------------------|
B-||...------------------|
G-||...---6s7s6----------|
D-||...----------7s9s7---|
A-||...------------------|
E-||...------------------|

      A                        E
Cada vez que piso lo que ya pisamos
      F#m                      D
Cada vez te recuerdo en un rincón
          A                    E
Y aunque camine lejos de tu camino
                    F#m                     D
Siempre que respiro,    siempre que respiro
                       A
Siempre es por tu amor


    A                                           D
E-||...------------------|--------------------|---...
B-||...------------------|--------------------|---...
G-||...---6s7s6----------|---------------9-9--|---...
D-||...----------7s9s7---|-7s9--9s11-11-------|-7-...
A-||...------------------|--------------------|---...
E-||...------------------|--------------------|---...


         D             E
¿Dónde irás con tanta magia
          F#m          D
Que hace poco me entregabas?
          A             E
¿Qué estarás haciendo ahora?
         C#                    F#m
Yo me enfermo solamente de pensar
              Bm           D
Que ya se acabó lo que me dabas
      E      A
¡Qué poco duró!


         D           E              F#m             D
E-||------------------------|----------------------------|
B-||-5h7-5------------------|-5h7-7s10----5h7-5----------|
G-||----------4h6-----------|--------------------7-------|
D-||---------------7-6------|-----------------------7----|
A-||------------------------|----------------------------|
E-||------------------------|----------------------------|


      A                               E
Cada vez que pienso en todo lo que hicimos
       F#m                          D
Se me cierra el pecho como en un cajón
          A                       E
Y aunque ya quedé fuera de tu destino
                    F#m                     D
Siempre que respiro,    siempre que respiro
                       A
Siempre es por tu amor


    A                                           D
E-||...------------------|--------------------|---...
B-||...------------------|--------------------|---...
G-||...---6s7s6----------|---------------9-9--|-7-...
D-||...----------7s9s7---|-7s9--9s11-11-------|---...
A-||...------------------|--------------------|---...
E-||...------------------|--------------------|---...


         D             E
¿Dónde irás con tanta magia
          F#m          D
Que hace poco me entregabas?
          A             E
¿Qué estarás haciendo ahora?
         C#                    F#m
Yo me enfermo solamente de pensar
              Bm           D
Que ya se acabó lo que me dabas
      E      A
¡Qué poco duró!


         D             E
¿Dónde irás con tanta magia
          F#m          D
Que hace poco me entregabas?
          A             E
¿Qué estarás haciendo ahora?
         C#                    F#m
Yo me enfermo solamente de pensar
              Bm           D
Que ya se acabó lo que me dabas
      E      A
¡Qué poco duró!


          Bm           D
Ya se acabó lo que me dabas
      E      A
¡Qué poco duró!


    A
E-||...------------------|
B-||...------------------|
G-||...---6h7-6----------|
D-||...----------7s9s7---|
A-||...------------------|
E-||...------------------|

            
            
Suggest correction
Creating personal tab
Creating personal tab
You can edit any tab online and save it as your Personal.

You can edit, replace or remove any tab part or add personal notes – all changes will be seen only by you.

Personal tabs can be accessed anytime from any device, even offline.
Learn more »
Give kudos to tab author, rate the tab!
1 2 3 4 5
comments
print report bad tab
guest
Wanna post a correction for this tab? Suggest correction