Oops, an error
Loading. Please wait.

Sturdy Wings tab

version 1
version 1

Whole song

Interactive

4,299 views 1 this week
1 commentread comment
1 2 3 4 5
x 4
add to favorites
×
Save as Personal and add changes to this tab that will be seen only by you. Learn more ›
×
You can save this tab as Personal to edit and correct it or add notes. All changes will be seen only by you. Learn more »
launch autoscroll
font size
0
reset
how to read this tab
guitar tuner
edit
Autoscroll
slow
fast
+/-
esc
set tempo
stop
Intro
D|-----------------------8---------------------------|
A|----------6---6----6----6----6---------------------|
F|----------9------9----------9----------------------|
C|10-10-10----------------------------0~--0~---------|
G|-8--8--8----------------------------0~--0~--12\----|
C|-7--8--8----------------------------0~--0~--12\----|

D|8-8-8-8-8-8----------------------|
A|6-6-6-6-6-6----------------------|
F|9-9-9-9-9-9----------------------|
C|---------------------------------|
G|------------5nh-5nh-5nh-5nh------|
C|---------------------------------|

strum the chords figure out the rhythm.
D|--------------8--------8-------------8------------------|
A|11------11-------6---6---6---6-6---6---6---6----8-------|
F|10---10----10------9-------9-----9-------9------9-------|
C|-8---------------------------------------------10-------|
G|--------------------------------------------------------|
C|--------------------------------------------------------|

riff slides
D|---------------------------------------------------------|
A|---------------------------------------------------------|
F|10\9-7-9-10-14-12-9/10\9-10\9-7-9------------------------|
C|------------------------------------------------5/7------|
G|-8\7-5-7--8-12-10-7/-8\7--8\7-5-7--8-----7------3/5------|
C|-------------------------------------7-5---5-3-----------|
                                                   |            x4                      |
D|---------------------------------------------------------------------------------------|
A|---------------------------------------------------------------------------------------|
F|---------------------------------------------------------------------------------------|
C|---------------3---3-----------------3---3---------------------------------------------|
G|-----------------7---------------------7-----------------------------------------------|
C|0-0-0-0-0-0-0---------0-0-0-0-0-0-0---------12/--0-0-0-0-0-0--0-0-0-0-0-0-0-0--0---0---|

D|-----------------------------------------------------------------------------------|
A|-----------------------------------------------------------------------------------|
F|-----------------------------------------------------------------------------------|
C|-----------------------------------------------------------------------------------|
G|3-3-3-3-3-3-3-3-3-3-3-3-3-3-3--3---3---1-1-1-1-1-1-1-1---1-1-1-1-1-1-1-1---1---1---|
C|3-3-3-3-3-3-3-3-3-3-3-3-3-3-3--3---3---1-1-1-1-1-1-1-1---1-1-1-1-1-1-1-1---1---1---|


Play this and one below twice
D|---------------------------------------------------------------------|
A|---------------------------------------------------------------------|
F|---------------------------------------------------------------------|
C|----------------------------------------7p5p3h5----------------------|
G|--------------------------------8p7p5h7---------8p7p5h7--------------|
C|0-0-0-0-0-0-0-0-0-0-0-0-0-0-0-0-------------------------8p7p5h7------|

D|--------------------------------------------------------------------|
A|--------------------------------------------------------------------|
F|--------------------------------------------------------------------|
C|---------------------------------10-10-10-10-10---------------------|
G|---------------------------------8--8--8--8--8----------------------|
C|0-0-0-0-0-0-0-0-0-0-0-0-0-0-0-0--8--8--8--8--8--7-7-7-7-7---3-3-3---|

2nd time
D|--------------------|
A|--------------------|
F|--------------------|
C|--------------------|
G|--------------------|
C|7-7-7-7-7---3-3-3---|

breakdown
D|------------------------------------------------------------------------------------------------------|
A|-------------------------------------------------------------------------------------------10-10-10---|
F|-------------------------------------------------------------------------------------------10-10-10---|
C|---------------------------------------------------------10-10-10-10-10-10-10-10-10-10-10--8--8--8----|
G|0---0-0-0-0---0-0-0-0---0-0-0-0---0-0-0-0---0-0-0-0---0--8--8--8--8--8--8--8--8--8--8--8---8--8--8----|
C|0---0-0-0-0---0-0-0-0---0-0-0-0---0-0-0-0---0-0-0-0---0--8--8--8--8--8--8--8--8--8--8--8---8--8--8----|

Pre Breakdown
D|----------------------|
A|----------------------|
F|----------------------|
C|----------1~----------|
G|----------1~----------|
C|7-7-7-7---1~----------|

Breakdown
D|--------------------------------------------------------------------------------------------8---------|
A|--------------------------------------------------------------------------------------6---6---6-------|
F|----------------------------------------------------------------------------------------9-------9-----|
C|---------------------------------------------------10-10-10-10--10-10-10--10-10-10-10-----------------|
G|0-0---0-0-0---0-0-0---0-0-0---0-0-0---0-0-0---00---8--8--8--8---8--8--8---8--8--8--8------------------|
C|0-0---0-0-0---0-0-0---0-0-0---0-0-0---0-0-0---00---8--8--8--8---8--8--8---8--8--8--8------------------|

strum the chords figure out the rhythm.
D|--------------8--------8-------------8------------------|
A|11------11-------6---6---6---6-6---6---6---6---8--------|
F|10---10----10------9-------9-----9-------9-----9--------|
C|8----------------------------------------------10-------|
G|--------------------------------------------------------|
C|--------------------------------------------------------|

riff slides
D|-------------------------------------------------------|
A|-------------------------------------------------------|
F|10\9-7-9-10-14-12-9/10\9-10\9-7-9----------------------|
C|-----------------------------------------------5/7-----|
G|8-\7-5-7--8-12-10-7/-8\7--8\7-5-7--8-----7-----3/5-----|
C|-------------------------------------7-5---5-3---------|

Pre-Breakdown
D|-----------------------------------------------------------------------|
A|-----6~------------------------------------------10~-------------------|
F|--------9~-------------------------------------------10~---------------|
C|0~---------7~-0~----------------------------0~-----------12~-----------|
G|0~------------0~----------------------------0~----------------ps-------|
C|0~------------0~--1-1-1-1-1-1-1-1-1-1-1-1---0~----------------ps-------|

Breakdown
D|-----------------------------------------------------------------------------------------------------|
A|---------------------------------------------------------------------------------------6-6-6-6-6-6---|
F|---------------------------------------------------------------------------------------7-7-7-7-7-7---|
C|-----------------------------------------------------------------------------------------------------|
G|------------0-0---0-0-0-0-0--0--0-0-0--0-0-0-0-0--0-0--0-0-0--0-0-0-0--0-0-0-0--0-0-0--5-5-5-5-5-5---|
C|1-1---1-1---0-0---0-0-0-0-0--0--0-0-0--0-0-0-0-0--0-0--0-0-0--0-0-0-0--0-0-0-0--0-0-0----------------|


Skipped the section before this, because it'll take me day to figure out


Figure rhythm out yourself
D|--------------------|
A|--------------------|
F|--------------------|
C|--------------------|
G|1----3----5---------|
C|1----3----5---------|


solo
D|------------------------------------------------------|
A|-------------------------------------11p10------------|
F|7h8h10-8h10h12-10--7h8h10-8h10h12-10-------12p10------|
C|------------------------------------------------------|
G|------------------------------------------------------|
C|------------------------------------------------------|

solo ending
D|-------------------13-13-13-8-10--6~-----|
A|-----------------------------------------|
F|7h8h10-8h10h12-10------------------------|
C|-----------------------------------------|
G|-----------------------------------------|
C|-----------------------------------------|

================
Things To Know
================
~ - Let ring
/ - Slide
\ - Slide
h - Hammer on
p - Pull off
ps - Pick silde
nh - Natural Harmonic

            
            
Suggest correction
Creating personal tab
Creating personal tab
You can edit any tab online and save it as your Personal.

You can edit, replace or remove any tab part or add personal notes – all changes will be seen only by you.

Personal tabs can be accessed anytime from any device, even offline.
Learn more »
comments
print report bad tab
1 comment total.
0 reply
Meelad360 80 Mar 26, 2011 06:18 PM

Not even close to correct

guest
You may want to rate the tab now too:
select rating
Wanna post a correction for this tab? Suggest correction