Oops, an error
Loading. Please wait.
We have Chord Pro version of Accidentally In Love.
It's the closest thing you can get to the original song and it has interactive parts. Check out the tab »
×
74,506 views 63 this week
2 commentsread comments
1 2 3 4 5
x 17
add to favorites
×
Save as Personal and add changes to this tab that will be seen only by you. Learn more ›
×
You can save this tab as Personal to edit and correct it or add notes. All changes will be seen only by you. Learn more »
launch autoscroll
font size
0
reset
how to read this tab
guitar tuner
backing track
0:00
0:00
edit
Autoscroll
slow
fast
+/-
esc
set tempo
stop
Author
Difficulty
intermediate
-------------------------------------------------------------------------------
                Counting Crows - Accidentally in love
-------------------------------------------------------------------------------
Tabbed by:Frederick
Email:frederickfernandofigo@hotmail.com

Tuning:standard

2 guitars
rhythm follow chords
Lead follow tabs under the lyrics


e|---------------------------------------------------------------------------|
B|[12-10-10-8-8-10](3X)-10-12-10-8-8--[12-10-10-8-8-10](3X)-10-10-8-8--------|
G|--------------------------------------------------------------------9-9--7~|
D|---------------------------------------------------------------------------|
A|---------------------------------------------------------------------------|
E|---------------------------------------------------------------------------|
G                      C
So she said what's the problem baby
G                          C
What's the problem I don't know
                  Em 
Well maybe I'm in love (love)
               A 
Think about it every time

I think about it
C
Can't stop thinking 'bout it
   C
e|-3-3-3-3-------------------------------------------------------------------|
B|-5-5-5-5-------------------------------------------------------------------|
G|-5-5-5-5-------------------------------------------------------------------|
D|-5-5-5-5-------------------------------------------------------------------|
A|-3-3-3-3-------------------------------------------------------------------|
E|-3-3-3-3-------------------------------------------------------------------|
G                       C
How much longer will it take to cure this
   G
e|-3-3-2-0-------------------------------------------------------------------|
B|-3-------3-----------------------------------------------------------------|
G|-4-------------------------------------------------------------------------|
D|-5-------------------------------------------------------------------------|
A|-5-------------------------------------------------------------------------|
E|-3-------------------------------------------------------------------------|
G                       C                       Em
Just to cure it cause I can't ignore it if it's love (love) 
   G
e|-3-3-2-0-------------------------------------------------------------------|
B|-3-------3-----------------------------------------------------------------|
G|-4-------------------------------------------------------------------------|
D|-5-------------------------------------------------------------------------|
A|-5-------------------------------------------------------------------------|
E|-3-------------------------------------------------------------------------|
               A                             C
Makes me wanna turn around and face me but I don't know nothing 'bout love 
                                             C
e|-------------------------------------------3-------------------------------|
B|-------------------------------------------5-6-5---------------------------|
G|-------------------------------------------5-----5-------------------------|
D|-------------------------------------------5-------------------------------|
A|-------------------------------------------3-------------------------------|
E|-------------------------------------------3-------------------------------|


  G        Am
  Come on, come on
e|3-3------5-5---------------------------------------------------------------|
B|3-3------5-5---------------------------------------------------------------|
G|4-4------5-5---------------------------------------------------------------|
D|5-5------7-7---------------------------------------------------------------|
A|5-5------7-7---------------------------------------------------------------|
E|3-3------5-5---------------------------------------------------------------|
  C             D
  Turn a little faster
e|---------------------------------------------------------------------------|
B|---------------------------------------------------------------------------|
G|-------4---5-------7-------------------------------------------------------|
D|5----7--------5h7----------------------------------------------------------|
A|---------------------------------------------------------------------------|
E|---------------------------------------------------------------------------|
  G        Am
  Come on, come on
e|3-3------5-5---------------------------------------------------------------|
B|3-3------5-5---------------------------------------------------------------|
G|4-4------5-5---------------------------------------------------------------|
D|5-5------7-7---------------------------------------------------------------|
A|5-5------7-7---------------------------------------------------------------|
E|3-3------5-5---------------------------------------------------------------|
  C                     D
  The world will follow after
e|---------------------------------------------------------------------------|
B|---------------------------------------------------------------------------|
G|-------5----7br---5---7----------------------------------------------------|
D|5----7---------------------------------------------------------------------|
A|---------------------------------------------------------------------------|
E|---------------------------------------------------------------------------|
  G        Am
  Come on, come on
e|3-3------5-5---------------------------------------------------------------|
B|3-3------5-5---------------------------------------------------------------|
G|4-4------5-5---------------------------------------------------------------|
D|5-5------7-7---------------------------------------------------------------|
A|5-5------7-7---------------------------------------------------------------|
E|3-3------5-5---------------------------------------------------------------| 
  C                 D     Em    A   C   
  Cause everybody's after loove
e|---------------------------------------------------------------------------|
B|---------------------------------------------------------------------------|
G|----5-7br-5-7-9---9-9--9-9--7~-9-7-5---------------------------------------|
D|5-7------------------------------------------------------------------------|
A|---------------------------------------------------------------------------|
E|---------------------------------------------------------------------------|
  G               C
  So I said I'm a snowball running
e|---------------------------------------------------------------------------|
B|---------------------------------------------------------------------------|
G|---------------------------------------------------------------------------|
D|---0-0---0h2---5-7p5-------------------------------------------------------|
A|-2-----2-------------------------------------------------------------------|
E|---------------------------------------------------------------------------|
  G                     C                             Em
  Running down into the spring that's coming all this love 
e|---------------------------------------------------------------------------|
B|---------------------------------------------------------------------------|
G|---------------------------------------------------------------------------|
D|---0-0----0h2---5-7-7-9--9-9--9-9------------------------------------------|
A|-2-----2-------------------------------------------------------------------|
E|---------------------------------------------------------------------------|
              A
Melting under blue skies
e|---------------------------------------------------------------------------|
B|---------------------------------------------------------------------------|
G|---------------------------------------------------------------------------|
D|---------7-7-7-7-7~--------------------------------------------------------|
A|---------------------------------------------------------------------------|
E|---------------------------------------------------------------------------|
            C
Belting out sunlight
e|---------------------------------------------------------------------------|
B|---------------------------------------------------------------------------|
G|---------------------------------------------------------------------------|
D|---------9-7-5-------------------------------------------------------------|
A|---------------------------------------------------------------------------|
E|---------------------------------------------------------------------------|
               G 
Shimmering love 
            C
  Well baby I surrender 
e|---------------------------------------------------------------------------|
B|---------------------------------------------------------------------------|
G|--7-7--7b------------------------------------------------------------------|
D|9----9----9----7-----------------------------------------------------------|
A|------------10-------------------------------------------------------------|
E|---------------------------------------------------------------------------|
         G
  To the strawberry ice cream
e|---------------------------------------------------------------------------|
B|-----10b-10b---------------------------------------------------------------|
G|-----------------7-7---7b--------------------------------------------------|
D|9-12-----------9-----9-----------------------------------------------------|
A|---------------------------------------------------------------------------|
E|---------------------------------------------------------------------------|
  C                          Em
  Never ever end of all this love
e|----------------------------7----------------------------------------------|
B|----------------------------8----------------------------------------------|
G|----------------------------9----------------------------------------------|
D|---------------------------------------------------------------------------|
A|---------------------------------------------------------------------------|
E|---------------------------------------------------------------------------|
                A
  Well I didn't mean to do it
e|---------------------------------------------------------------------------|
B|-----10br10-8-10~~---------------------------------------------------------|
G|---------------------------------------------------------------------------|
D|---------------------------------------------------------------------------|
A|---------------------------------------------------------------------------|
E|---------------------------------------------------------------------------|
              C
  But there's no escaping your love
e|---------------------------------------------------------------------------|
B|------------12-10-8--------------------------------------------------------|
G|---------------------------------------------------------------------------|
D|---------------------------------------------------------------------------|
A|---------------------------------------------------------------------------|
E|---------------------------------------------------------------------------|
Em             C
These lines of lightning
           G            Am 
Mean we're never alone, never alone 
e|---------3-3----------5-5--------------------------------------------------|
B|---------3-3----------5-5--------------------------------------------------|
G|---------4-4----------5-5--------------------------------------------------|
D|---------5-5----------7-7--------------------------------------------------|
A|---------5-5----------7-7--------------------------------------------------|
E|---------3-3----------5-5--------------------------------------------------|

 no, no 

  G        Am
  Come on, come on
e|3-3------5-5---------------------------------------------------------------|
B|3-3------5-5---------------------------------------------------------------|
G|4-4------5-5---------------------------------------------------------------|
D|5-5------7-7---------------------------------------------------------------|
A|5-5------7-7---------------------------------------------------------------|
E|3-3------5-5---------------------------------------------------------------|
  C             D
  Move a little closer
e|---------------------------------------------------------------------------|
B|---------------------------------------------------------------------------|
G|---------4--5--------7-----------------------------------------------------|
D|5----7---------5h7---------------------------------------------------------|
A|---------------------------------------------------------------------------|
E|---------------------------------------------------------------------------|
  G        Am
  Come on, come on
e|3-3------5-5---------------------------------------------------------------|
B|3-3------5-5---------------------------------------------------------------|
G|4-4------5-5---------------------------------------------------------------|
D|5-5------7-7---------------------------------------------------------------|
A|5-5------7-7---------------------------------------------------------------|
E|3-3------5-5---------------------------------------------------------------|
  C                  D
  I want to hear you whisper
e|---------------------------------------------------------------------------|
B|---------------------------------------------------------------------------|
G|-------5-----7br---5---7---------------------------------------------------|
D|5----7---------------------------------------------------------------------|
A|---------------------------------------------------------------------------|
E|---------------------------------------------------------------------------|
  G        Am
  Come on, come on
e|3-3------5-5---------------------------------------------------------------|
B|3-3------5-5---------------------------------------------------------------|
G|4-4------5-5---------------------------------------------------------------|
D|5-5------7-7---------------------------------------------------------------|
A|5-5------7-7---------------------------------------------------------------|
E|3-3------5-5---------------------------------------------------------------| 
  C           D         Em     D   
  Settle down inside my loove
e|---------------------------------------------------------------------------|
B|---------------------------------------------------------------------------|
G|----5-7br-5-7-9---9-9--9-9--7~-9-7-5---------------------------------------|
D|5-7------------------------------------------------------------------------|
A|---------------------------------------------------------------------------|
E|---------------------------------------------------------------------------|

  G        Am
  Come on, come on
e|3-3------5-5---------------------------------------------------------------|
B|3-3------5-5---------------------------------------------------------------|
G|4-4------5-5---------------------------------------------------------------|
D|5-5------7-7---------------------------------------------------------------|
A|5-5------7-7---------------------------------------------------------------|
E|3-3------5-5---------------------------------------------------------------|
  C             D
  Jump a little higher
e|---------------------------------------------------------------------------|
B|---------------------------------------------------------------------------|
G|----------4-5--------7-----------------------------------------------------|
D|5----7-----------5h7-------------------------------------------------------|
A|---------------------------------------------------------------------------|
E|---------------------------------------------------------------------------|
  G        Am
  Come on, come on
e|3-3------5-5---------------------------------------------------------------|
B|3-3------5-5---------------------------------------------------------------|
G|4-4------5-5---------------------------------------------------------------|
D|5-5------7-7---------------------------------------------------------------|
A|5-5------7-7---------------------------------------------------------------|
E|3-3------5-5---------------------------------------------------------------|
  C                     D
  If you feel a little lighter
e|---------------------------------------------------------------------------|
B|---------------------------------------------------------------------------|
G|--------5----7br----5-----7------------------------------------------------|
D|5---7----------------------------------------------------------------------|
A|---------------------------------------------------------------------------|
E|---------------------------------------------------------------------------|
  G        Am
  Come on, come on
e|3-3------5-5---------------------------------------------------------------|
B|3-3------5-5---------------------------------------------------------------|
G|4-4------5-5---------------------------------------------------------------|
D|5-5------7-7---------------------------------------------------------------|
A|5-5------7-7---------------------------------------------------------------|
E|3-3------5-5---------------------------------------------------------------| 
  C            D               Em    A   C   
  We were once upon in time in love
e|---------------------------------------------------------------------------|
B|---------------------------------------------------------------------------|
G|----5-7br-5-7-9---9-9--9-9--7~-9-7-5---------------------------------------|
D|5-7------------------------------------------------------------------------|
A|---------------------------------------------------------------------------|
E|---------------------------------------------------------------------------|
                      G       C
We're accidentally in love
e|---------------------------------------------------------------------------|
B|----------------------------12-10------------------------------------------|
G|----------------------------------12---------------------------------------|
D|---------------------------------------------------------------------------|
A|---------------------------------------------------------------------------|
E|---------------------------------------------------------------------------|
                Em         D
Accidentally in love
                G        C
Accidentally in love
e|---------------------------------------------------------------------------|
B|-----------------------12-10-----------------------------------------------|
G|-----------------------------12--------------------------------------------|
D|---------------------------------------------------------------------------|
A|---------------------------------------------------------------------------|
E|---------------------------------------------------------------------------| 
               
Accidentally in
 [G      C                      D       Em] (2x)
  love          Accidentally in love
e|---------------------------------------------------------------------------|
B|[12-10-10-8-8-10](3X)-10-12-10-8-8--[12-10-10-8-8-10](3X)-10-12-10-8-8-----|
G|---------------------------------------------------------------------------|
D|---------------------------------------------------------------------------|
A|---------------------------------------------------------------------------|
E|---------------------------------------------------------------------------|
             G
Accidentally
          C            Em           D                            G
I'm in love, I'm in love, I'm in love, I'm in love  Accidentally 
e|---------------------------------------------------------------------------|
B|--17-20-------17-20------17-20---17-20b-20b-20b-20-22br22p20---------------|
G|19----------19---------19------19------------------------------------------|
D|---------------------------------------------------------------------------|
A|---------------------------------------------------------------------------|
E|---------------------------------------------------------------------------|


          C            Em           D
I'm in love, I'm in love, I'm in love, I'm in love  
e|--------17bv~-----------17b17b17br17---------------------------------------|
B|--17-20----------17-20------------------17-20----17-20----17-20b-22b~~-----|
G|19------------19---------------------19-------19-------19------------------|
D|---------------------------------------------------------------------------|
A|---------------------------------------------------------------------------|
E|---------------------------------------------------------------------------|

  G        Am
  Come on, come on
e|3-3------5-5---------------------------------------------------------------|
B|3-3------5-5---------------------------------------------------------------|
G|4-4------5-5---------------------------------------------------------------|
D|5-5------7-7---------------------------------------------------------------|
A|5-5------7-7---------------------------------------------------------------|
E|3-3------5-5---------------------------------------------------------------|
  C             D
  Spin a little tighter
e|---------------------------------------------------------------------------|
B|---------------------------------------------------------------------------|
G|-------4--5-------7--------------------------------------------------------|
D|5----7------5h7------------------------------------------------------------|
A|---------------------------------------------------------------------------|
E|---------------------------------------------------------------------------|
  G        Am
  Come on, come on
e|3-3------5-5---------------------------------------------------------------|
B|3-3------5-5---------------------------------------------------------------|
G|4-4------5-5---------------------------------------------------------------|
D|5-5------7-7---------------------------------------------------------------|
A|5-5------7-7---------------------------------------------------------------|
E|3-3------5-5---------------------------------------------------------------|
        C                D
and the world's a little brighter
e|---------------------------------------------------------------------------|
B|---------------------------------------------------------------------------|
G|-------5---7br----5----7---------------------------------------------------|
D|5----7---------------------------------------------------------------------|
A|---------------------------------------------------------------------------|
E|---------------------------------------------------------------------------|
  G        Am
  Come on, come on
e|3-3------5-5---------------------------------------------------------------|
B|3-3------5-5---------------------------------------------------------------|
G|4-4------5-5---------------------------------------------------------------|
D|5-5------7-7---------------------------------------------------------------|
A|5-5------7-7---------------------------------------------------------------|
E|3-3------5-5---------------------------------------------------------------| 
  C                 D          Em    D   
  Just get yourself inside her love
e|---------------------------------------------------------------------------|
B|---------------------------------------------------------------------------|
G|----5-7br-5-7-9---9-9--9-9--7~-9-7-5---------------------------------------|
D|5-7------------------------------------------------------------------------|
A|---------------------------------------------------------------------------|
E|---------------------------------------------------------------------------|
       G  
I'm in love
e|-----3---------------------------------------------------------------------|
B|-----3---------------------------------------------------------------------|
G|-----4---------------------------------------------------------------------|
D|-----5---------------------------------------------------------------------|
A|-----5---------------------------------------------------------------------|
E|-----3---------------------------------------------------------------------|



************************************

| ~  Vibrato
| h  Hammer-on
| p  Pull-off
| b  Bend 

************************************

            
            
Suggest correction
Creating personal tab
Creating personal tab
You can edit any tab online and save it as your Personal.

You can edit, replace or remove any tab part or add personal notes – all changes will be seen only by you.

Personal tabs can be accessed anytime from any device, even offline.
Learn more »
comments
print report bad tab
2 comments total.
0 reply
guitarsuperman2 31 Sep 14, 2006 08:07 PM

the best tab for this song on this site...only because u have parts of lead and the others have only chords...a few things are octave high or low but i gave it 3 stars...it was o.k.

0 reply
macflii 60 Jun 09, 2007 08:03 AM

very good, man. good job.

guest
You may want to rate the tab now too:
select rating
Wanna post a correction for this tab? Suggest correction