Oops, an error
Loading. Please wait.

Friend Of The Devil tab

10,917 views 1 this week
2 commentsread comments
1 2 3 4 5
1 last vote to show rating
add to favorites
×
Save as Personal and add changes to this tab that will be seen only by you. Learn more ›
×
You can save this tab as Personal to edit and correct it or add notes. All changes will be seen only by you. Learn more »
launch autoscroll
font size
0
reset
how to read this tab
guitar tuner
edit
Autoscroll
slow
fast
+/-
esc
set tempo
stop
Author
Difficulty
Tabbed by: Sandra Nilsson 
Email: 89san003@edu.lulea.se

Tuning:eBGDAE

I haven't been able to figure the other guitars out, but here's at least one.

e|---------------------------------------------------------------------------|
B|-------3---------3---------3---------3---------3---------3---------3------3|
G|----0---------0---------0---------0---------0---------0---------0-------0--|
D|-5---------4---------2---------0-------------------------------------------|
A|-----------------------------------------3---------2---------0-------------|
E|---------------------------------------------------------------------0-----|



I lit out from Reno,
I was trailed by twenty hounds
Didn't get to sleep that night
'Till the morning came around.

D
Set out runnin' but I take my time
  Am
A friend of the devil is a friend of mine
   D
If I get home before daylight,
  Am                  C       D
I just might get some sleep tonight.

Ran into the devil, babe,
He loaned me twenty bills
I spent the night in Utah
In a cave up in the hills.

Set out runnin' but I take my time,
A friend of the devil is a friend of mine,
If I get home before daylight,
I just might get some sleep tonight.

I ran down to the levee
But the devil caught me there
He took my twenty dollar bill
And vanished in the air.

Set out runnin' but I take my time
A friend of the devil is a friend of mine
If I get home before daylight,
I just might get some sleep tonight.

D
Got two reasons why I cry
D
Away each lonely night,
    C
The first one's named Sweet Anne Marie,
    C                          C  C#
And she's my hearts delight.
    D
The second one is prison, baby,
    D
The sheriff's on my trail,
    Am
And if he catches up with me,
     C                D
I'll spend my life in jail.

Got a wife in Chino, babe,
And one in Cherokee
The first one says she's got my child,
But it don't look like me.

Set out runnin' but I take my time,
A friend of the devil is a friend of mine,
If I get home before daylight,
I just might get some sleep tonight.

            
            
Suggest correction
Creating personal tab
Creating personal tab
You can edit any tab online and save it as your Personal.

You can edit, replace or remove any tab part or add personal notes – all changes will be seen only by you.

Personal tabs can be accessed anytime from any device, even offline.
Learn more »
Give kudos to tab author, rate the tab!
1 2 3 4 5
comments
print report bad tab
2 comments total.
+2 reply
superrueben 32 Dec 08, 2008 11:15 AM

It's... - only change is the last bass-side note - its a G not an E (3rd fret E string)

e|---------------------------------------------------------------------------|
B|-------3---------3---------3---------3---------3---------3---------3------3|
G|----0---------0---------0---------0---------0---------0---------0-------0--|
D|-5---------4---------2---------0-------------------------------------------|
A|-----------------------------------------3---------2---------0-------------|
E|---------------------------------------------------------------------3-----|

0 reply
superrueben 32 Dec 30, 2008 01:49 AM

other that that its ace though =D

guest
You may want to rate the tab now too:
select rating
Wanna post a correction for this tab? Suggest correction