Oops, an error
Loading. Please wait.

Goodnight Elisabeth tab

version 1
version 1

Whole song

41,858 views 15 this week
no commentswrite comment
1 2 3 4 5
x 13
add to favorites
×
Save as Personal and add changes to this tab that will be seen only by you. Learn more ›
×
You can save this tab as Personal to edit and correct it or add notes. All changes will be seen only by you. Learn more »
launch autoscroll
font size
0
reset
how to read this tab
guitar tuner
edit
Autoscroll
slow
fast
+/-
esc
set tempo
stop
Author
Unregistered
Intro: Guitar 1, clean electric
e||-----------------------------------|-----------------------------|
B||-----------5-----5b(7)r5-----5-----|-----5-----5b(7)r5-----5-----|
G||*-------------4-----------------4--|--------4-----------------4--|
D||*----------------------------------|-----------------------------|
A||--------0--------------------------|-----------------------------|
E||---4/5--------------------5--------|--4-----------------4--------|
                                                                      
e|-----------------------------|---------------------------------||
B|-----5-----5b(7)r5-----5-----|-----3------------3-----5p3------||
G|--------4-----------------4--|---------------2-----2-------2--*||
D|-----------------------------|--0-----0h2h4-------------------*||
A|-----------------------------|---------------------------------||
E|--3-----------------3--------|---------------------------------||
                                                                      
On the repeat, guitar 2, acoustic enters, strumming
A E Gadd6 Dsus2
Guitar 3 also enters, with a little distortion and a Leslie speaker,
doubling the chords played by guitar 2

[Verse] (The bass plays A-G#-G-F#, one note per chord)

A                   E
i was wasted in the afternoon
Gadd6        Dsus2
waiting on a train
i woke up in pieces and elisabeth had disappeared again
i wish you were inside of me
i hope that you're ok
i hope you're resting quietly
i just wanted to say

[Chorus]
A E G D
goodnight elisabeth

[Verse]
we couldn't all be cowboys
so some of us are clowns
and some of us are dancers no the midway
we roam from town to town
i hope that everybody can find a little flame
me, i say my prayers,
then i just light myself on fire
and i walk out on the wire once again
and i say

goodnight elisabeth

 [Solo] (over A E Gadd6 Dsus2):
e|--------------------------|-----------------------|
B|---------10--12--12b(14)--|--12b(14)r(12)--10h12--|
G|--2/6/7-------------------|-----------------------|
D|--------------------------|-----------------------|
A|--------------------------|-----------------------|
E|--------------------------|-----------------------|
                                                                      
e|------------------------------------------------|
B|--12b(14)r(12)--10--12b(15)--12b(14)--10h12-----|
G|---------------------------------------------9--|
D|------------------------------------------------|
A|------------------------------------------------|
E|------------------------------------------------|
                                                                      
e|--------------------|--------------------------|
B|--------------------|---------10p9--10--10/12--|
G|--2/6--7--7p6--7/9--|--6/7h9-------------------|
D|--------------------|--------------------------|
A|--------------------|--------------------------|
E|--------------------|--------------------------|
                                                                      
e|-----------------------------17----------------|
B|----------15p14------17b(19)------(19)r17--15--|
G|--7/9/14---------14----------------------------|
D|-----------------------------------------------|
A|-----------------------------------------------|
E|-----------------------------------------------|
                                                                      
e|-------------------------------|
B|--(15)r14--12--(14)r12--10~~~--|
G|-------------------------------|
D|-------------------------------|
A|-------------------------------|
E|-------------------------------|

[Verse]
i will wait for you in Baton Rouge
i'll miss you down in New Orleans
i'll wait for you while she slips in something comfortable
and i'll miss you when i'm slipping in between
if you wrap yourself in daffodils
i will wrap myself in pain
and if you're the queen of California
baby i am the king of the rain
and i say

goodnight elisabeth

repeat A E Gadd6 Dsus2 until end

            
            
Suggest correction
Creating personal tab
Creating personal tab
You can edit any tab online and save it as your Personal.

You can edit, replace or remove any tab part or add personal notes – all changes will be seen only by you.

Personal tabs can be accessed anytime from any device, even offline.
Learn more »
comments
print report bad tab
guest
Wanna post a correction for this tab? Suggest correction