Oops, an error
Loading. Please wait.

A Oven bass

by Cows
190 views 3 this week
no commentswrite comment
1 2 3 4 5
3 more votes to show rating
add to favorites
×
Save as Personal and add changes to this tab that will be seen only by you. Learn more ›
×
You can save this tab as Personal to edit and correct it or add notes. All changes will be seen only by you. Learn more »
launch autoscroll
font size
0
reset
guitar tuner
edit
Autoscroll
slow
fast
+/-
esc
set tempo
stop
Author
Difficulty
Artist - Cows
Album - Whorn
Song - A Oven
Year - 1996
Bassist - Kevin Rutmanis
Tabber - Alowishus
Date - 09/05/2013

This one is a bit more complex than the other Cows tabs i've submitted - haha! The verse 
is a pretty upbeat sort of jazzy feeling line so you may need fast fingers! Enjoy.

Intro - let final note ring out.

G|--9--7-------------------------|
D|--------9--7-------------------|
A|--------------9/4--------------|
E|-------------------7-7-7-7--5--|

Assorted craziness ensues, there is no bass guitar, guitar feedbacks till 0:40 or so.

Verse - due to the highly fuzzy guitar, it's difficult to hear what exactly is getting 
played, it is either one of these, though both sound fine.
G|--------------------------|
D|-----5--3-----------------|
A|--5--------5--5--0--2--3--|
E|--------------------------|

OR

G|--------------------------|
D|-----5--3-----3-----------|
A|--5--------5-----0--2--3--|
E|--------------------------|

Chorus
G|----------------7-|
D|-------7--6--9----|
A|-5--8-------------|
E|------------------|

Last bar: 0-2-3 leads back into verse.
G|-------------------------|
D|-------7--6~~------------|
A|-5--8------------0--2--3-|
E|-------------------------|

Verse
G|--------------------------|
D|-----5--3-----------------|
A|--5--------5--5--0--2--3--|
E|--------------------------|

OR

G|--------------------------|
D|-----5--3-----3-----------|
A|--5--------5-----0--2--3--|
E|--------------------------|

Chorus
G|----------------7-|
D|-------7--6--9----|
A|-5--8-------------|
E|------------------|

Last bar:
G|-------------------------|
D|-------7--6~~------------|
A|-5--8--------------------|
E|-------------------------|

Bass drops out. Just drums and trumpet/bugle. 2:22 bass re-enters at Chorus

Chorus
G|----------------7-|
D|-------7--6--9----|
A|-5--8-------------|
E|------------------|

Last bar: 0-2-3 leads back into verse.
G|-------------------------|
D|-------7--6~~------------|
A|-5--8------------0--2--3-|
E|-------------------------|

Verse
G|--------------------------|
D|-----5--3-----------------|
A|--5--------5--5--0--2--3--|
E|--------------------------|

OR

G|--------------------------|
D|-----5--3-----3-----------|
A|--5--------5-----0--2--3--|
E|--------------------------|

Chorus
G|----------------7-|
D|-------7--6--9----|
A|-5--8-------------|
E|------------------|

Last bar:
G|-------------------------|
D|-------7--6~~------------|
A|-5--8--------------------|
E|-------------------------|

After final chorus, the bass drops out, just drums till the end.

That's it!

            
            
Suggest correction
Creating personal tab
Creating personal tab
You can edit any tab online and save it as your Personal.

You can edit, replace or remove any tab part or add personal notes – all changes will be seen only by you.

Personal tabs can be accessed anytime from any device, even offline.
Learn more »
Give kudos to tab author, rate the tab!
1 2 3 4 5
comments
print report bad tab
guest
You may want to rate the tab now too:
select rating
Wanna post a correction for this tab? Suggest correction