Oops, an error
Loading. Please wait.

Chinchilillo tab

by CPU
17 views 1 this week
no commentswrite comment
1 2 3 4 5
3 more votes to show rating
add to favorites
×
Save as Personal and add changes to this tab that will be seen only by you. Learn more ›
×
You can save this tab as Personal to edit and correct it or add notes. All changes will be seen only by you. Learn more »
launch autoscroll
font size
0
reset
how to read this tab
guitar tuner
edit
Autoscroll
slow
fast
+/-
esc
set tempo
stop
esta es una cancion nicaraguense muy conocida en el ambito del rock...


intro....

1.---------------------------------------------------|
2.---------------------------------------------------|
3.---------------------------------------------------|
4.---------------------------------------------------| este riff es del bajo x2
5.----------3-----------------5--3----------3--------|
6.---5-5--3---3--5-----3-5--3-------5-5---3----3--5--|

esto se toca en el estribillo
1.-----------------------------------------------------------------------|
2.-----------------------------------------------------------------------|
3.-----------------------------------------------------------------------|
4.-----------------------------------------------------------------------|
5.--7s0------3h2h0---0-0-0-0-0---3h2h0---0-0-0-3h2h0--0-0-0-0-0-0-0-0-0--|
6.-----------------------------------------------------------------------|

aprobecharon que la justicia tenia los ojos bendados y sin asco
LA patiaron LA violaron
la apuñalaron su balanza se vino abajo....

1.----------------------------------------|
2.----------------------------------------|
3.----------------------------------------|
4.----------------------------------------| x5
5.-----------------------------5--5-------|
6.---5-5-5-7-8-7-5----1-1-0---------------|

ante mis ojos... ante los ojos de todos ..... se vino abajo
la justicia se cumplio y se vino abajo

despues sigue el estribillo

y se quebro.... como en piñata y como en piñata la asesinaron
los poderes del estado .....

1.-------------------------------------|
2.-------------------------------------|
3.-------------------------------------|
4.-------------------------------------| x4
5.---------3----1-0-0-0-0--------------|
6.---5--3------------------------------|

alejdo por los siglos
de vivir en lo nefasto del gobierno
que con tus riales haces bailar a perros de este circo...
por eso...

el coro es el intro del bajo tocado con la guitarra

cuando grita el poder
chinchilillo!!!!
los cuchillos
gritan los seres viles del poder
chinchilillo
los cuchillos


eso es todo. esta es una buena rola nica.... espero les guste

            
            
Suggest correction
Creating personal tab
Creating personal tab
You can edit any tab online and save it as your Personal.

You can edit, replace or remove any tab part or add personal notes – all changes will be seen only by you.

Personal tabs can be accessed anytime from any device, even offline.
Learn more »
Give kudos to tab author, rate the tab!
1 2 3 4 5
comments
print report bad tab
guest
Wanna post a correction for this tab? Suggest correction