Oops, an error
Loading. Please wait.

Suspicion tab

67 views 1 this week
no commentswrite comment
1 2 3 4 5
3 more votes to show rating
add to favorites
×
Save as Personal and add changes to this tab that will be seen only by you. Learn more ›
×
You can save this tab as Personal to edit and correct it or add notes. All changes will be seen only by you. Learn more »
launch autoscroll
font size
0
reset
how to read this tab
guitar tuner
edit
Autoscroll
slow
fast
+/-
esc
set tempo
stop
Crack the Sky
Suspicion

Whole song (minus solos)

[Main riff]

e|------------------------------------------------------|
B|------------------------------------------------------|
G|------------------------------------------------------|
D|-------3-----------------------3----------------------|
A|---5-5---5-3-5----------3--5-5---5-3-5----------------|
E|---------------3-4--5-5----------------3-4-5\1--------|

Play with palm mutes for verse, open for chorus
All chords best played as barre or power chords


[Verse 1]

e|----------------------|
B|----------------------|
G|----------------------|
D|------------3---------|
A|--------5-5---5-3-5---|
E|----------------------|

She's no fun anymore

e|-------------------------------|
B|-------------------------------|
G|-------------------------------|
D|------------3------------------|
A|--------5-5---5-3-5------------|
E|----------------------3-4-5\1--|

She's no fun anymore

      C                           G
I can tell that there's something wrong

e|-----------------------|
B|-----------------------|
G|-----------------------|
D|-------------3---------|
A|---------5-5---5-3-5---|
E|-----------------------|

'cause she's no fun anymore

e|-------------------------------|
B|-------------------------------|
G|-------------------------------|
D|-------------3-----------------|
A|---------5-5---5-3-5-----------|
E|-----------------------3-4-5-5-|

She walks lightly

e|-------------------------------|
B|-------------------------------|
G|-------------------------------|
D|-3----------3------------------|
A|--------5-5---5-3-5------------|
E|----------------------3-4-5\1--|

They meet nightly

          C                       G
They talk lightly so I don't wake up
And catch her in his arms

e|--------------------------|
B|--------------------------|
G|--------------------------|
D|-------------3------------|
A|---------5-5---5-3-5\1----|
E|--------------------------|


[Chorus]

         G5            D#5      C5      Bb5  A
She says oh no, you're so   so  wrong

         G5            D#5            Bb   C
She says oh no, you're so so wrong

e|-------------------------------|
B|-------------------------------|
G|-------------------------------|
D|-------------3-----------------|
A|---------5-5---5-3-5-----------|
E|-----------------------3-4-5-5-|

Suspicion, it's got the best of me


e|-------------------------------|
B|-------------------------------|
G|-------------------------------|
D|-3----------3------------------|
A|--------5-5---5-3-5------------|
E|----------------------3-4-5\1--|

Suspicion, it's got the best of me

[Repeat Verse 2 and Chorus]



************************************

| \  Slide down

************************************

            
            
Suggest correction
Creating personal tab
Creating personal tab
You can edit any tab online and save it as your Personal.

You can edit, replace or remove any tab part or add personal notes – all changes will be seen only by you.

Personal tabs can be accessed anytime from any device, even offline.
Learn more »
Give kudos to tab author, rate the tab!
1 2 3 4 5
comments
print report bad tab
guest
Wanna post a correction for this tab? Suggest correction