Oops, an error
Loading. Please wait.

Cruelty Brought Thee Orchids bass

version 1
version 1

Whole song

Interactive

964 views 3 this week
no commentswrite comment
1 2 3 4 5
3 more votes to show rating
add to favorites
×
Save as Personal and add changes to this tab that will be seen only by you. Learn more ›
×
You can save this tab as Personal to edit and correct it or add notes. All changes will be seen only by you. Learn more »
launch autoscroll
font size
0
reset
guitar tuner
edit
Autoscroll
slow
fast
+/-
esc
set tempo
stop
Cradle of Filth 
Cruelty Brought Thee Orchids.
Tabber: CotyXD

I know that some parts may be messed up, but hey, I typed it on notepad. Sooo enjoy this great song.

Tuning: Drop D


G||----------------------------------|----------------------------------|
D||----------------------------------|----------------------------------|
A||----------------------------------|----------------------------------|
D||--0-0-0-0-0-0-0-0-0-0-0-0-0-0-0-0-|--0-0-7-7-7-3-3-3-8-8-8-8-8-8-8-8-|



----------------------------------|----------------------------------|
----------------------------------|----------------------------------|
----------------------------------|----------------------------------|
--8-8-8-8-8-8-8-8-8-8-7-7-7-7-7-7-|--0-0-0-0-0-0-0-0-0-0-0-0-0-0-0-0-|



----------------------------------|----------------------------------|
----------------------------------|----------------------------------|
----------------------------------|----------------------------------|
--0-0-7-7-7-3-3-3-8-8-8-8-8-8-8-8-|--8-8-8-8-8-8-8-8-8-8-7-7-7-7-7-7-|



----------------------------------|----------------------------------|
----------------------------------|----------------------------------|
----------------------------------|----------------------------------|
--0-0-0-0-0-0-0-0-0-0-0-0-0-0-0-0-|--0-0-7-7-7-3-3-3-8-8-8-8-8-8-8-8-|



----------------------------------|----------------------------------|
----------------------------------|----------------------------------|
----------------------------------|----------------------------------|
--8-8-8-8-8-8-8-8-8-8-7-7-7-7-7-7-|--0-0-0-0-0-0-0-0-0-0-0-0-0-0-0-0-|



----------------------------------|----------------------------------|
----------------------------------|----------------------------------|
----------------------------------|----------------------------------|
--0-0-7-7-7-3-3-3-8-8-8-8-8-8-8-8-|--8-8-8-8-8-8-8-8-8-8-7-7-7-7-7-7-|



--------------------------|--------------------------|
--------------------------|--------------------------|
--------------------------|--------------------------|
--0--0--0--0--0--0--3--3--|--3--3--3--3--8--8--8--8--|



--------------------------|--------------------------|
--------------------------|--------------------------|
--------------------------|--------------------------|
--8--8--8--8--8--7--7--7--|--0--0--0--0--0--0--3--3--|



--------------------------|--------------------------|
--------------------------|--------------------------|
--------------------------|--------------------------|
--3--3--3--3--8--8--8--8--|--8--8--8--8--8--7--7--7--|



--------------------------|--------------------------|
--------------------------|--------------------------|
--------------------------|--------------------------|
--0--0--0--0--0--0--3--3--|--3--3--3--3--8--8--8--8--|



--------------------------|--------------------------|
--------------------------|--------------------------|
--------------------------|--------------------------|
--8--8--8--8--8--7--7--7--|--0--0--0--0--0--0--3--3--|



--------------------------|--------------------------|
--------------------------|--------------------------|
--------------------------|--------------------------|
--3--3--3--3--8--8--8--8--|--8--8--8--8--8--7--7--7--|



----------------------------------|----------------------------------|
----------------------------------|----------------------------------|
----------------------------------|----------------------------------|
--0-0-0-0-0-0-0-0-0-0-0-0-0-0-0-0-|--0-0-7-7-7-3-3-3-8-8-8-8-8-8-8-8-|



----------------------------------|----------------------------------|
----------------------------------|----------------------------------|
----------------------------------|----------------------------------|
--8-8-8-8-8-8-8-8-8-8-7-7-7-7-7-7-|--0-0-0-0-0-0-0-0-0-0-0-0-0-0-0-0-|



----------------------------------|----------------------------------|
----------------------------------|----------------------------------|
----------------------------------|----------------------------------|
--0-0-7-7-7-3-3-3-8-8-8-8-8-8-8-8-|--8-8-8-8-8-8-8-8-8-8-7-7-7-7-7-7-|



----------------------------------|----------------------------------|
----------------------------------|----------------------------------|
----------------------------------|----------------------------------|
--0-0-0-0-0-0-0-0-0-0-0-0-0-0-0-0-|--0-0-7-7-7-3-3-3-8-8-8-8-8-8-8-8-|



----------------------------------|----------------------------------|
----------------------------------|----------------------------------|
----------------------------------|----------------------------------|
--8-8-8-8-8-8-8-8-8-8-7-7-7-7-7-7-|--0-0-0-0-0-0-0-0-0-0-0-0-0-0-0-0-|



----------------------------------|----------------------------------|
----------------------------------|----------------------------------|
----------------------------------|----------------------------------|
--0-0-7-7-7-3-3-3-8-8-8-8-8-8-8-8-|--8-8-8-8-8-8-8-8-8-8-7-7-7-7-7-7-|



-------------------|------------------|------------------|------------------|
-------------------|------------------|------------------|------------------|
-------------------|------------------|------------------|------------------|
--0----------------|------------------|------------------|------------------|



------------------|------------------|------------------|
------------------|------------------|------------------|
------------------|------------------|------------------|
------------------|------------------|------------------|



-----3--------3--------3--------3-----||---------------------|
--3--------2--------3--------5--------||*--------------------|
--------3--------3--------3--------3--||*--5------------3----|
--------------------------------------||---------------------|



--------------------|-------------------|
--------------------|-------------------|
--5------------3----|--5----------------|
--------------------|-------------------|



---------------------------------------||---------------------|
--3--2-----3--2-----5--2-----5--2-----*||*--------------------|
--------3--------3--------3--------3--*||*--5------------3----|
---------------------------------------||---------------------|



--------------------|-------------------|
--------------------|-------------------|
--5------------3----|--5----------------|
--------------------|-------------------|



---------------------------------------||--------------------------------------|
--3--2-----3--2-----5--2-----5--2-----*||--3--2-----3--2-----5--2-----5--2-----|
--------3--------3--------3--------3--*||--------3--------3--------3--------3--|
---------------------------------------||--------------------------------------|



------------------------------|----------------------------------|
--5----------------------5----|--6-------------6--------6--------|
-------3--3--3--3--3--3-------|-------3--3--3-----3--3-----3--3--|
------------------------------|----------------------------------|



----------------------------------|--3--0-----3--0-----4--0-----4--0-----|
--5-------------5--------5--------|--------1--------1--------1--------1--|
-------3--3--3-----3--3-----3--3--|--------------------------------------|
----------------------------------|--------------------------------------|



------------------------------|----------------------------------|
--5----------------------5----|--6-------------6--------6--------|
-------3--3--3--3--3--3-------|-------3--3--3-----3--3-----3--3--|
------------------------------|----------------------------------|



----------------------------------|--3--0-----3--0-----4--0-----4--0-----|
--5-------------5--------5--------|--------1--------1--------1--------1--|
-------3--3--3-----3--3-----3--3--|--------------------------------------|
----------------------------------|--------------------------------------|



|---------------------|--------------------|-------------------|
|*--------------------|--------------------|-------------------|
|*--5------------3----|--5------------3----|--5----------------|
|---------------------|--------------------|-------------------|


                                       3x
---------------------------------------||--------------------------|
--3--2-----3--2-----5--2-----5--2-----*||--------------------------|
--------3--------3--------3--------3--*||--5-----------4-----------|
---------------------------------------||-----0--0--0-----0--0--0--|



--------------------------|--------------------------|
--------------------------|--------------------------|
--6-----------------0--3--|--5-----------4-----------|
-----0--0--0--0--0--------|-----0--0--0-----0--0--0--|



--------------------------|--------------------------|
--------------------------|--------------------------|
--6-----------------0--3--|--5-----------4-----------|
-----0--0--0--0--0--------|-----0--0--0-----0--0--0--|



--------------------------|--------------------------|
--------------------------|--------------------------|
--6-----------------0--3--|--5-----------4-----------|
-----0--0--0--0--0--------|-----0--0--0-----0--0--0--|



--------------------------|--------------------------|
--------------------------|--------------------------|
--6-----------------0--3--|--------------------------|
-----0--0--0--0--0--------|--1--1--1--1--1--1--1--1--|



--------------------------|--------------------------|
--------------------------|--------------------------|
--------------------------|--------------------------|
--1--1--1--1--1--1--1--1--|--5--5--5--5--5--5--5--5--|



--------------------------|--------------------------|
--------------------------|--------------------------|
-----------0--1--1--0-----|--------------------------|
--5--5--5--------------5--|--1--1--1--1--1--1--1--1--|



--------------------------|--------------------------|
--------------------------|--------------------------|
--------------------------|--------------------------|
--0--0--0--0--0--0--0--0--|--1--1--1--1--1--1--1--1--|



--------------------------|--------------------------|
--------------------------|--------------------------|
--1--1--1--1--0--0--0--0--|--------------------------|
--------------------------|--1--1--1--1--1--1--1--1--|



--------------------------|--------------------------|
--------------------------|--------------------------|
--------------------------|--------------------------|
--1--1--1--1--1--1--1--1--|--5--5--5--5--5--5--5--5--|



--------------------------|--------------------------|
--------------------------|--------------------------|
-----------0--1--1--0-----|--------------------------|
--5--5--5--------------5--|--1--1--1--1--1--1--1--1--|



--------------------------|--------------------------|
--------------------------|--------------------------|
--------------------------|--------------------------|
--0--0--0--0--0--0--0--0--|--1--1--1--1--1--1--1--1--|



--------------------------|--------------------------|
--------------------------|--------------------------|
--1--1--1--1--0--0--0--0--|--3--3--3--3--3--3--3--3--|
--------------------------|--------------------------|



--------------------------|--------------------------|
-----------------------0--|--0--0--1--1--1-----------|
--3--3--3--3--3--3--3-----|-----------------1--1--1--|
--------------------------|--------------------------|



--------------------------|--------------------------|
--------------------------|--------------------------|
--------------------------|--------------------------|
--6--6--6--6--6--6--6--6--|--6--5--6--5--3--3--3--3--|



--------------------------|--------------------------|
--------------------------|--------------------------|
--------1--1--1--1--1--1--|--3--------3--------3-----|
--3--5--------------------|-----5--6-----6--5-----5--|



--------------------------|--------------------------|
--------------------------|--------0-----0--1--0-----|
-----3--------3--------3--|-----3-----3-----------3--|
--6-----6--5-----5--6-----|--6-----------------------|



--------------------------|--------------------------|
--------0--1--0-----------|--0--1--0-----------------|
-----3-----------3-----3--|-----------3--------------|
--6-----------------6-----|--------------3--3--3--3--|



--------------------------|-------------------|--------------------|
-----------1---1-0--------|-------------------|--------------------|
--------0-----------3--0--|--3----------------|----------3---------|
--6--6--------------------|-------------------|-----------------0--|



----------------------|-------------------|----------------------|
----------------------|-------------------|----------------------|
----------------------|-------------------|----------------------|
------1------3--1--0--|--6----------------|----5--6--5--3--------|



-------------------|-------------------|--------------------|
-------------------|-------------------|--------------------|
------1------------|--3----------------|----------3------5--|
-------------------|-------------------|--------------------|



----------------------|-------------------|----------------------|
-------------3--1--0--|-------------------|----------------------|
------6---------------|-------------------|----------------------|
----------------------|--6----------------|----5--6--5--3--------|



-------------------|--------------------------|--------------------------|
-------------------|--------------------------|--------------------------|
------1------------|--3--3--3--3--3--3--3--3--|--3--3--3--3--3--3--3--5--|
-------------------|--------------------------|--------------------------|



--------------------------|--------------------------|
--------------------------|--------------------------|
--5--5--6--6--6--8--6--5--|--------------------------|
--------------------------|--6--6--6--6--6--6--6--6--|



--------------------------|--------------------------|---------------------|
--------------------------|--------------------------|---------------------|
--------------------------|--------1--1--1--1--1--1--|---------------------|
--6--5--6--5--3--3--3--3--|--5--6--------------------|--13/-----0----------|



------------------|------------------|------------------|
------------------|------------------|------------------|
------------------|------------------|------------------|
------------------|------------------|------------------|



------------------------------------|------------------------------------|
------------------------------------|------------------------------------|
----------1--0-------------0--------|----------2--0-------------1--0-----|
----3--6--------3----2--5-----6--3--|----3--6--------3----3--6--------3--|



------------------------------------|------------------------------------|
------------------------------------|------------------------------------|
----------1--0-------------0--------|----------2--0-------------1--0-----|
----3--6--------3----2--5-----6--3--|----3--6--------3----3--6--------3--|



------------------------------------|------------------------------------|
------------------------------------|------------------------------------|
----------1--0-------------0--------|----------2--0-------------1--0-----|
----3--6--------3----2--5-----6--3--|----3--6--------3----3--6--------3--|



------------------------------------|------------------------------------|
------------------------------------|------------------------------------|
----------1--0-------------0--------|----------2--0-------------1--0-----|
----3--6--------3----2--5-----6--3--|----3--6--------3----3--6--------3--|



--------------------------|--------------------------|
--------------------------|--------------------------|
--5-----------4-----------|--6-----------------0--3--|
-----0--0--0-----0--0--0--|-----0--0--0--0--0--------|



--------------------------|--------------------------|
--------------------------|--------------------------|
--5-----------4-----------|--6-----------------0--3--|
-----0--0--0-----0--0--0--|-----0--0--0--0--0--------|



--------------------------|--------------------------|
--------------------------|--------------------------|
--5-----------4-----------|--6-----------------0--3--|
-----0--0--0-----0--0--0--|-----0--0--0--0--0--------|



--------------------------|--------------------------|
--------------------------|--------------------------|
--5-----------4-----------|--6-----------------0--3--|
-----0--0--0-----0--0--0--|-----0--0--0--0--0--------|



--------------------------|--------------------------|
--------------------------|--------------------------|
--------------------------|--------------------------|
--1--1--1--1--1--1--1--1--|--1--1--1--1--1--1--1--1--|



--------------------------|--------------------------|
--------------------------|--------------------------|
--------------------------|-----------0--1--1--0-----|
--5--5--5--5--5--5--5--5--|--5--5--5--------------5--|



--------------------------|--------------------------|
--------------------------|--------------------------|
--------------------------|--------------------------|
--1--1--1--1--1--1--1--1--|--0--0--0--0--0--0--0--0--|



--------------------------|--------------------------|
--------------------------|--------------------------|
--------------------------|--1--1--1--1--0--0--0--0--|
--1--1--1--1--1--1--1--1--|--------------------------|



--------------------------|--------------------------|
--------------------------|--------------------------|
--------------------------|--------------------------|
--1--1--1--1--1--1--1--1--|--1--1--1--1--1--1--1--1--|



--------------------------|--------------------------|
--------------------------|--------------------------|
--------------------------|-----------0--1--1--0-----|
--5--5--5--5--5--5--5--5--|--5--5--5--------------5--|



--------------------------|--------------------------|
--------------------------|--------------------------|
--------------------------|--------------------------|
--1--1--1--1--1--1--1--1--|--0--0--0--0--0--0--0--0--|



--------------------------|--------------------------||---------------------|
--------------------------|--------------------------||*--------------------|
--------------------------|--1--1--1--1--0--0--0--0--||*--5------------3----|
--1--1--1--1--1--1--1--1--|--------------------------||---------------------|



--------------------|-------------------|
--------------------|-------------------|
--5------------3----|--5----------------|
--------------------|-------------------|



---------------------------------------||---------------------|
--3--2-----3--2-----5--2-----5--2-----*||*--------------------|
--------3--------3--------3--------3--*||*--5------------3----|
---------------------------------------||---------------------|



--------------------|-------------------|
--------------------|-------------------|
--5------------3----|--5----------------|
--------------------|-------------------|







------------------------------|----------------------------------|
--5----------------------5----|--6-------------6--------6--------|
-------3--3--3--3--3--3-------|-------3--3--3-----3--3-----3--3--|
------------------------------|----------------------------------|



----------------------------------|--3--0-----3--0-----4--0-----4--0-----|
--5-------------5--------5--------|--------1--------1--------1--------1--|
-------3--3--3-----3--3-----3--3--|--------------------------------------|
----------------------------------|--------------------------------------|



------------------------------|----------------------------------|
--5----------------------5----|--6-------------6--------6--------|
-------3--3--3--3--3--3-------|-------3--3--3-----3--3-----3--3--|
------------------------------|----------------------------------|



----------------------------------|--3--0-----3--0-----4--0-----4--0-----|
--5-------------5--------5--------|--------1--------1--------1--------1--|
-------3--3--3-----3--3-----3--3--|--------------------------------------|
----------------------------------|--------------------------------------|



----------------------------------|----------------------------------|
----------------------------------|----------------------------------|
--5-------------------------------|--1----1--1--1--1--1--1--1--1--1--|
-------0--0--0--0--0--0--0--0--0--|----------------------------------|



-------------------------------|--------------------------------------|
-------------------------------|--3--3--3--3--3--3--2--2--2-----------|
--0----0--0--0--0--0--0-----0--|-----------------------------3--3--3--|
-------------------------3-----|--------------------------------------|



----------------------------------|----------------------------------|
----------------------------------|----------------------------------|
--5-------------------------------|--1----1--1--1--1--1--1--1--1--1--|
-------0--0--0--0--0--0--0--0--0--|----------------------------------|



-------------------------------|--------------------------------------|
-------------------------------|--3--3--3--3--3--3--2--2--2-----------|
--0----0--0--0--0--0--0-----0--|-----------------------------3--3--3--|
-------------------------3-----|--------------------------------------|



|---------------------|--------------------|-------------------|
|*--------------------|--------------------|-------------------|
|*--5------------3----|--5------------3----|--5----------------|
|---------------------|--------------------|-------------------|



---------------------------------------||--------------------|
--3--2-----3--2-----5--2-----5--2-----*||--3--------2--------|
--------3--------3--------3--------3--*||--------------------|
---------------------------------------||--------------------|



----------------------|----------------------|----------------------|
--3----2----0---------|-----------------3----|--2----0--------------|
-----------------0----|--1----0--------------|------------4----0----|
----------------------|------------5---------|----------------------|






-------------------|------------------||
-------------------|------------------||
-------------------|------------------||
--0----------------|------------------||

            
            
Suggest correction
Creating personal tab
Creating personal tab
You can edit any tab online and save it as your Personal.

You can edit, replace or remove any tab part or add personal notes – all changes will be seen only by you.

Personal tabs can be accessed anytime from any device, even offline.
Learn more »
Give kudos to tab author, rate the tab!
1 2 3 4 5
comments
print report bad tab
guest
You may want to rate the tab now too:
select rating
Wanna post a correction for this tab? Suggest correction