Oops, an error
Loading. Please wait.

Presents From The Poison-Hearted tab

version 1
version 1

Whole song

Interactive

767 views 1 this week
5 commentsread comments
1 2 3 4 5
2 more votes to show rating
add to favorites
×
Save as Personal and add changes to this tab that will be seen only by you. Learn more ›
×
You can save this tab as Personal to edit and correct it or add notes. All changes will be seen only by you. Learn more »
launch autoscroll
font size
0
reset
how to read this tab
guitar tuner
edit
Autoscroll
slow
fast
+/-
esc
set tempo
stop
================================================================================
                          C R A D L E   O F   F I L T H

                                       -

        P R E S E N T S   F R O M    T H E   P O I S O N - H E A R T E D
================================================================================


                               DAMNATION AND A DAY
                             (c) Sony Records - 2003
                          http://www.cradleoffilth.com/


                       Tune down one step, then Drop D (to C)
                                   C G C F A D


                                 Tempo = 164 BPM
                              Time Signature = 4/4


                          -----------------------------
                                 Transcribed by

                                 PADDY MCMULLAN
                           stinkypoohpants@yahoo.co.uk

                                   Version 2.1
                     (Corrections Outlined at Bottom of Tab)
                                 13th April 2009
                             -----------------------

                             Tablature Symbols Used:


 P.M...    -  Palm Mute
 p         -  Pull-Off
 h         -  Hammer-On
 (/)       -  Legato Slide (Blank space indicates length of slide)
 \         -  Slide Down to/Down From (Blank space indicates length of slide)
 /         -  Slide Up To/Up From (Blank space indicates length of slide)
 ( )       -  Ghost Note/Tied Note/Implied Note
 REST      -  Rest and sustain rest for duration of blank space
 |_3_|     -  Triplet Notes
 |___[1]   -  Ending 1/2/3 etc.



================================================================================
Intro: Guitars 1 & 2 with Heavy Distortion (Play once)
================================================================================


  1
||--------------------------------------------------|
||--------------------------------------------------|
||--------------------------------------------------|
||--------------------------------------------------|
||--3--3--3--3--3--3--3--3--3--3--3--3--3--3--3--3/ |
||--------------------------------------------------|
    ..............................................

 2
|--------------------------------------------------|
|--------------------------------------------------|
|--------------------------------------------------|
|--------------------------------------------------|
|--6--6--6--6--6--6--5--5--5--5--5--5--6--6--6--6--|
|--------------------------------------------------|
   ..............................................

 3
|---------------------------------------------------|
|---------------------------------------------------|
|---------------------------------------------------|
|---------------------------------------------------|
|--0h3-3--3--3--3--3--3--3--3--3--3--3--3--3--3--3/ |
|---------------------------------------------------|
   ...............................................

 4
|--------------------------------------------------|
|--------------------------------------------------|
|--------------------------------------------------|
|--------------------------------------------------|
|--6--6--6--6--6--6--5--5--5--5--5--5--6--6--6--6--|
|--------------------------------------------------|
   ..............................................

 5
|--------------------------------------------------|
|--------------------------------------------------|
|--------------------------------------------------|
|--------------------------------------------------|
|--2--2--2--2--2--2--2--2--2--2--2--2--2--2--2--2--|
|--------------------------------------------------|
   ..............................................

 6
|--------------------------------------------------|
|--------------------------------------------------|
|--------------------------------------------------|
|--------------------------------------------------|
|--2--2--2--2--2--2--2--2--2--2--2--2--2--2--2--2--|
|--------------------------------------------------|
   ..............................................

 7                                                  8
|--------------------------------------------------|-----------------------|
|--------------------------------------------------|-----------------------|
|--------------------------------------------------|--8----8----8----------|
|--------------------------------------------------|--5----6----8----------|
|--2--2--2--2--2--2--2--2--2--2--2--2--2--2--2--2--|-----------------6--5--|
|--------------------------------------------------|-----------------------|
   ..............................................

 9
|-----------------------------------------|
|-----------------------------------------|
|-----------------------------------------|
|--5--------------5--------------5--------|
|--3--3--3--3--3--3--3--3--3--3--3--3--3/ |
|-----------------------------------------|
      ..........     ..........     ....

 10
|--------------------------------------|
|--------------------------------------|
|--------------------------------------|
|--8--------------7--------------8--7--|
|--6--6--6--6--6--5--5--5--5--5--6--0--|
|--------------------------------------|
      ..........      ..........

 11
|-----------------------------------------|
|-----------------------------------------|
|-----------------------------------------|
|--5--------------5--------------5--------|
|--3--3--3--3--3--3--3--3--3--3--3--3--3/ |
|-----------------------------------------|
      ..........     ..........     ....

 12
|--------------------------------------|
|--------------------------------------|
|--------------------------------------|
|--8--------------7--------------8--7--|
|--6--6--6--6--6--5--5--5--5--5--6--0--|
|--------------------------------------|
      ..........      ..........

 13
|-----------------------------------------|
|-----------------------------------------|
|-----------------------------------------|
|--5--------------5--------------5--------|
|--2--2--2--2--2--2--2--2--2--2--2--2--2--|
|-----------------------------------------|
      ..........     ..........     ....

 14
|-----------------------------------------|
|-----------------------------------------|
|-----------------------------------------|
|--6--------------5--------------5--------|
|--2--2--2--2--2--2--2--2--2--2--2--2--2--|
|-----------------------------------------|
      ..........     ..........     ....

 15                                        16
|-----------------------------------------|-----------------------||
|-----------------------------------------|-----------------------||
|-----------------------------------------|--8----8----8----------||
|--5--------------5--------------5--------|--5----6----8----------||
|--2--2--2--2--2--2--2--2--2--2--2--2--2--|-----------------8--7--||
|-----------------------------------------|-----------------8--7--||
      ..........     ..........     ....                    ....



================================================================================
Verse: Guitars 1 & 2 (Play twice)
================================================================================


||--------------------------|--------------------------|
||--------------------------|--------------------------|
||--------------------------|--------------------------|
||--------8-----7--------5--|--------8-----7--------5--|
||--5--5--5--5--5--5--5--5--|--5--5--5--5--5--5--5--5--|
||--5--5--5--5--5--5--5--5--|--5--5--5--5--5--5--5--5--|
    ....    ...    ....        ....    ...    ....

|--------------------------|--------------------------|
|--------------------------|--------------------------|
|--------------------------|--------------------------|
|--------7-----5--------5--|--------7-----5-----5-(5)-|
|--5--5--5--5--5--5--5--5--|--5--5--5--5--5--5--5--5--|
|--5--5--5--5--5--5--5--5--|--5--5--5--5--5--5--5-(5)-|
   ....    ...    ....        ....    ...   ...

|-----------------------------------------|
|-----------------------------------------|
|-----------------------------------------|
|--4--------5--------4--------------------|
|--6--6--6--6--6--6--6--6--6--6--6--6--6--|
|-----------------------------------------|
      ....     ....     ................

|-----------------------------------------|
|-----------------------------------------|
|-----------------------------------------|
|--4--------5--------4--------------------|
|--6--6--6--6--6--6--6--6--6--6--6--6--6--|
|-----------------------------------------|
      ....     ....     ................

|-----------------------------------------|-------------------------| |
|-----------------------------------------|-------------------------| |
|-----------------------------------------|-------------------------|*|
|--7--------8--------7--------------------|--------------------7----|*|
|--9--9--9--9--9--9--9--9--9--9--9--9--9--|--7--8--7--0--7--0--9----| |
|-----------------------------------------|--7--8--7--0--7--0-------| |
      ....     ....     ................     ................



================================================================================
Rest for 8 bars
================================================================================

================================================================================
Pre-Chorus: Guitars 1 & 2 (Play once)
================================================================================


||-------------------------------------------|
||-------------------------------------------|
||-------------------------------------------|
||-------------------------------------------|
||--2----2--2--2--2--2--2--2--2--2--2--2--2--|
||--2----2--2--2--2--2--2--2--2--2--2--2--2--|
         ..................................

|------------------------------------|
|------------------------------------|
|------------------------------------|
|------------------------------------|
|--0----0--0--0--0--1----1--1--1--1--|
|--0----0--0--0--0--1----1--1--1--1--|
        ..........       ..........

|-------------------------------------------|------------------------|
|-------------------------------------------|------------------------|
|-------------------------------------------|------------------------|
|-------------------------------------------|-----------3----3--3----|
|--2----2--2--2--2--2--2--2--2--2--2--2--2--|--0--0--0--1----1--1----|
|--2----2--2--2--2--2--2--2--2--2--2--2--2--|--0--0--0---------------|
        ..................................        ....

|-------------------------------------------|
|-------------------------------------------|
|-------------------------------------------|
|--2----2--2--2--2--2--2--2--2--2--2--2--2--|
|--0----0--0--0--0--0--0--0--0--0--0--0--0--|
|-------------------------------------------|
        ..................................

|------------------------------------|
|------------------------------------|
|------------------------------------|
|-------------------1----------------|
|--5----5--5--5--5--1----1--1--1--1--|
|--5----5--5--5--5--1----1--1--1--1--|
        ..........       ..........

|-------------------------------------------|----------------------||
|-------------------------------------------|----------------------||
|-------------------------------------------|----------------------||
|--2----2--2--2--2--2--2--2--2--2--2--2--2--|------------1----1----||
|--0----0--0--0--0--0--0--0--0--0--0--0--0--|--5----5----1----1----||
|-------------------------------------------|--5----5----1----1----||
        ..................................



================================================================================
Chorus: Guitars 1 & 2 (Play once)
================================================================================


  1                      2                         3
||----------------------|-------------------------|----------------------|
||-----------R-        -|-------------------------|-----------R-        -|
||-----------E-        -|-------------------------|-----------E-        -|
||-----------S-        -|-------------------------|-----------S-        -|
||--0--2--2--T-        -|--0--2--2--2----3--2--0--|--2--3--3--T-        -|
||--0--2--2-------------|--0--2--2--2----3--2--0--|--2--3--3-------------|
    ....                   .......       .......     ....

 4                         5                      6
|-------------------------|----------------------|-------------------------|
|-------------------------|-----------R-        -|-------------------------|
|-------------------------|-----------E-        -|-------------------------|
|-------------------------|-----------S-        -|-------------------------|
|--3--3--3--3----5--3--2--|--0--2--2--T-        -|--0--2--2--2----3--2--0--|
|--3--3--3--3----5--3--2--|--0--2--2-------------|--0--2--2--2----3--2--0--|
   .......       .......     ....                   .......       .......

 7                      8                         9
|----------------------|-------------------------|-------------------------|
|-----------R-        -|-------------------------|-------------------------|
|-----------E-        -|-------------------------|-------------------------|
|-----------S-        -|-------------------------|-------------------------|
|--2--3--3--T-        -|--2--3--3--3----5--3--2--|--5 h 7--7----7----7--7--|
|--2--3--3-------------|--2--3--3--3----5--3--2--|--5 h 7--7----7----7--7--|
   ....                   .......

 10                         11
|--------------------------|-------------------------|
|--------------------------|-------------------------|
|--------------------------|-------------------------|
|--------------------------|-------------------------|
|--5 h 7--7--7----8--7--5--|--(7/8)--8----8----8--8--|
|--5 h 7--7--7----8--7--5--|--(7/8)--8----8----8--8--|


 12                          13
|---------------------------|-------------------------|
|---------------------------|-------------------------|
|---------------------------|-------------------------|
|---------------------------|-------------------------|
|--(7/8)--8--8----10--8--7--|--5 h 7--7----7----7--7--|
|--(7/8)--8--8----10--8--7--|--5 h 7--7----7----7--7--|


 14                         15
|--------------------------|-------------------------|
|--------------------------|-------------------------|
|--------------------------|-------------------------|
|--------------------------|-------------------------|
|--5 h 7--7--7----8--7--5--|--(7/8)--8----8----8--8--|
|--5 h 7--7--7----8--7--5--|--(7/8)--8----8----8--8--|


 16
|--------------------------||
|--------------------------||
|--------------------------||
|--------------------------||
|--7--8--7--5~~---8--7--8--||
|--7--8--7--------8--7--8--||
   .......



================================================================================
Play the Verse twice
================================================================================

================================================================================
Play the Pre-Chorus once
================================================================================

================================================================================
Play the Chorus once, replacing the last 2 bars with the following:
================================================================================


[ Tempo = 184 BPM ]


|--------------------|----------------------||
|--------------------|----------------------||
|--------------------|----------------------||
|--------------------|----------------------||
|--7--------0--------|--5--------8--7--8----||
|--7--------0--------|--5--------8--7--8----||
                                 ....



================================================================================
Section 2 - Part I: Play once
================================================================================


  1                        2
||------------------------|--------------------------|
||------------------------|--------------------------|
||------------------------|--------------------------|
||--7------5 / 7------5 / |--7--8--7 \ 5--7----------|
||--5------3 / 5------3 / |--5--6--5 \ 3--5----3--5--|
||------------------------|--------------------3--5--|
                                               ....
 3                        4
|------------------------|------------------------------|
|------------------------|------------------------------|
|------------------------|------------------------------|
|--7------5 / 7------5 / |--7 / 8--7 / 8--10 \ 8--7--5--|
|--5------3 / 5------3 / |--5 / 6--5 / 6--8  \ 6--5--3--|
|------------------------|------------------------------|

 5                        6
|------------------------|--------------------------|
|------------------------|--------------------------|
|------------------------|--------------------------|
|--7------5 / 7------5 / |--7--8--7 \ 5--7----------|
|--5------3 / 5------3 / |--5--6--5 \ 3--5----3--5--|
|------------------------|--------------------3--5--|
                                              ....
 7                        8
|------------------------|-------------------------------|
|------------------------|-------------------------------|
|------------------------|-------------------------------|
|--7------5 / 7------5 / |--7 / 8--7 / 8--10 \ 8--8 \ 5--|
|--5------3 / 5------3 / |--5 / 6--5 / 6--8  \ 6--6 \ 3--|
|------------------------|-------------------------------|

 9                      10
|----------------------|----------------------------|
|----------------------|----------------------------|
|----------------------|----------------------------|
|--8------7--8------7--|--8 / 10--8 \ 7--8----------|
|--6------5--6------5--|--6 / 8---6 \ 5--6----3--5--|
|----------------------|----------------------3--5--|
                                              ....
 11                       12                         13
|------------------------|--------------------------|----------------------||
|------------------------|--------------------------|----------------------||
|------------------------|--------------------------|----------------------||
|--7------5 / 7------5 / |--7--8--7 \ 5--7----------|----------------------||
|--5------3 / 5------3 / |--5--6--5 \ 3--5----3--5--|--3----2----0----2----||
|------------------------|--------------------3--5--|--3----2----0----2----||
                                              ....



================================================================================
Section 2 - Part II: Play twice [ Tempo = 194 BPM ]
================================================================================


    |____3___|  |__3__|       |__3__|          |__3__|  |___3__|  |___3__|
||-------------------------------------|------------------------------------|
||-------------------------------------|------------------------------------|
||-------------------------------------|------------------------------------|
||-------------------------------------|------------------------------------|
||--------------7--7--7--7----7--7--7--|--7----7--7--7----------------------|
||-(10 p 9 p 7)-7--7--7--7----7--7--7--|--7----7--7--7--10--9--7--10--9--7--|
                .......       .......          ...........................
 

   |___3__|  |___3__|  |___3__|  |___3__|
|------------------------------------------|
|------------------------------------------|
|------------------------------------------|
|------------------------------------------|
|--8 p 0--0--8 p 0--0--7 p 0--0--7 p 0--0--|
|------------------------------------------|


   |___3__|  |___3__|  |___3__|  |___3__|
|------------------------------------------|
|------------------------------------------|
|------------------------------------------|
|------------------------------------------|
|--6 p 0--0--6 p 0--0--7 p 0--0--7 p 0--0--|
|------------------------------------------|


   |____3___|  |__3__|       |__3__|          |__3__|  |___3__|  |___3__|
|-------------------------------------|------------------------------------|
|-------------------------------------|------------------------------------|
|-------------------------------------|------------------------------------|
|-------------------------------------|------------------------------------|
|--------------7--7--7--7----7--7--7--|--7----7--7--7----------------------|
|-(10 p 9 p 7)-7--7--7--7----7--7--7--|--7----7--7--7--10--9--7--10--9--7--|
               .......       .......          ...........................

        |__3__|                      |__3__|
|----------------------------|--------------------------| |
|----------------------------|--------------------------| |
|----------------------------|--------------------------|*|
|----------------------------|--------------------------|*|
|--8----8--8--8--10----12----|--3----3--3--3--5----7----| |
|--8----8--8--8--10----12----|--3----3--3--3--5----7----| |
        .......                      .......



================================================================================
Play Section 2 - Part I once
================================================================================

================================================================================
Section 2 - Part III: Guitars 1 & 2 (Play 4 times)
================================================================================


||------------------------------|-------------------------|
||------------------------------|-------------------------|
||------------------------------|-------------------------|
||------------------------------|-------------------------|
||--2----2--2--2--2----2--2--2--|--2----2--2--3--2--0--2--|
||--2----2--3--2--2----2--3--2--|--2----2--2--3--2--0--2--|
         .......       .......          ................

|------------------------------|-------------------------|
|------------------------------|-------------------------|
|------------------------------|-------------------------|
|------------------------------|-------------------------|
|--2----2--2--2--2----2--2--2--|--2----2--2--3--2--0--2--|
|--2----2--3--2--2----2--3--2--|--2----2--2--3--2--0--2--|
        .......       .......          ................

|------------------------------------|-------------------------|
|------------------------------------|-------------------------|
|------------------------------------|-------------------------|
|------------------------------------|-------------------------|
|--5----5--5--5--5--5----5--5--5--5--|--5----5--5--5--5--5--5--|
|--5----7--8--7--5--5----7--8--7--5--|--5----5--5--7--5--8--5--|
        ..........       ..........          ................

                               |____________________[1,2]
|------------------------------|----------------------| |
|------------------------------|----------------------| |
|------------------------------|----------------------|*|
|------------------------------|----------------------|*|
|--5----5--5--5--5--5----5--5--|--5----3----2----0----| |
|--5----7--8--7--5--5----7--5--|--5----3----2----0----| |
        .............


|______________________[3]
|----------------------| |
|----------R-    ------| |
|----------E-    ------|*|
|----------S-    ------|*|
|--5----3--T-    -0----| |
|--5----3---------0----| |


|______________________[4]
|----------------------| |
|----------------------| |
|----------------------|*|
|----------------------|*|
|--5------3------1--0--| |
|--5------3------1--0--| |
                 ....


End the riff on the following chord; hold it for 4 bars:


||-----------||
||-----------||
||-----------||
||--5--------||
||--3--------||
||-----------||



================================================================================
Rest for a further 20 bars [ Tempo = 164 BPM ]
================================================================================

================================================================================
Intro Variation: Guitars 1 & 2 (Play once)
================================================================================


  1
||--------------------------------------------------|
||--------------------------------------------------|
||--------------------------------------------------|
||--------------------------------------------------|
||--3--3--3--3--3--3--3--3--3--3--3--3--3--3--3--3/ |
||--------------------------------------------------|
    ..............................................

 2
|--------------------------------------------------|
|--------------------------------------------------|
|--------------------------------------------------|
|--------------------------------------------------|
|--6--6--6--6--6--6--5--5--5--5--5--5--6--6--6--6--|
|--------------------------------------------------|
   ..............................................

 3
|---------------------------------------------------|
|---------------------------------------------------|
|---------------------------------------------------|
|---------------------------------------------------|
|--0h3-3--3--3--3--3--3--3--3--3--3--3--3--3--3--3/ |
|---------------------------------------------------|
   ...............................................

 4
|--------------------------------------------------|
|--------------------------------------------------|
|--------------------------------------------------|
|--------------------------------------------------|
|--6--6--6--6--6--6--5--5--5--5--5--5--6--6--6--6--|
|--------------------------------------------------|
   ..............................................

 5
|--------------------------------------------------|
|--------------------------------------------------|
|--------------------------------------------------|
|--------------------------------------------------|
|--2--2--2--2--2--2--2--2--2--2--2--2--2--2--2--2--|
|--------------------------------------------------|
   ..............................................

 6
|--------------------------------------------------|
|--------------------------------------------------|
|--------------------------------------------------|
|--------------------------------------------------|
|--6--6--6--6--6--6--5--5--5--5--5--5--6--6--6--6--|
|--------------------------------------------------|
   ..............................................

 7                                                  8
|--------------------------------------------------|-----------------------|
|--------------------------------------------------|-----------------------|
|--------------------------------------------------|--8----8----8----------|
|--------------------------------------------------|--5----6----8----------|
|--2--2--2--2--2--2--2--2--2--2--2--2--2--2--2--2--|-----------------6--5--|
|--------------------------------------------------|-----------------------|
   ..............................................

 9
|-----------------------------------------|
|-----------------------------------------|
|-----------------------------------------|
|--5--------------5--------------5--------|
|--3--3--3--3--3--3--3--3--3--3--3--3--3/ |
|-----------------------------------------|
      ..........     ..........     ....

 10
|--------------------------------------|
|--------------------------------------|
|--------------------------------------|
|--8--------------7--------------8--7--|
|--6--6--6--6--6--5--5--5--5--5--6--0--|
|--------------------------------------|
      ..........      ..........

 11
|-----------------------------------------|
|-----------------------------------------|
|-----------------------------------------|
|--5--------------5--------------5--------|
|--3--3--3--3--3--3--3--3--3--3--3--3--3/ |
|-----------------------------------------|
      ..........     ..........     ....

 12
|--------------------------------------|
|--------------------------------------|
|--------------------------------------|
|--8--------------7--------------8--7--|
|--6--6--6--6--6--5--5--5--5--5--6--0--|
|--------------------------------------|
      ..........      ..........

 13
|-----------------------------------------|
|-----------------------------------------|
|-----------------------------------------|
|--5--------------5--------------5--------|
|--2--2--2--2--2--2--2--2--2--2--2--2--2--|
|-----------------------------------------|
      ..........     ..........     ....

 14
|-----------------------------------------|
|-----------------------------------------|
|-----------------------------------------|
|--6--------------5--------------5--------|
|--2--2--2--2--2--2--2--2--2--2--2--2--2--|
|-----------------------------------------|
      ..........     ..........     ....

 15                                        16
|-----------------------------------------|----------------------||
|-----------------------------------------|----------------------||
|-----------------------------------------|--8----8----8----8----||
|--5--------------5--------------5--------|--5----6----8----5----||
|--2--2--2--2--2--2--2--2--2--2--2--2--2--|----------------------||
|-----------------------------------------|----------------------||
      ..........     ..........     ....

   17
| |------------------| |
| |------------------| |
|3|--8----8----------|4|
|/|--6----8----------|/|
|4|------------8--7--|4|
| |------------8--7--| |
               ....



================================================================================
Play the Verse twice
================================================================================

================================================================================
Chorus Variation: Guitars 1 & 2 (Play once)
================================================================================


  1                         2
||-------------------------|--------------------------|
||-------------------------|--------------------------|
||-------------------------|--------------------------|
||-------------------------|--------------------------|
||--5 h 7--7----7----7--7--|--5 h 7--7--7----8--7--5--|
||--5 h 7--7----7----7--7--|--5 h 7--7--7----8--7--5--|

 3                         4
|-------------------------|---------------------------|
|-------------------------|---------------------------|
|-------------------------|---------------------------|
|-------------------------|---------------------------|
|--(7/8)--8----8----8--8--|--(7/8)--8--8----10--8--7--|
|--(7/8)--8----8----8--8--|--(7/8)--8--8----10--8--7--|

 5                         6
|-------------------------|--------------------------|
|-------------------------|--------------------------|
|-------------------------|--------------------------|
|-------------------------|--------------------------|
|--5 h 7--7----7----7--7--|--5 h 7--7--7----8--7--5--|
|--5 h 7--7----7----7--7--|--5 h 7--7--7----8--7--5--|

 7                         8
|-------------------------|---------------------------|
|-------------------------|---------------------------|
|-------------------------|---------------------------|
|-------------------------|---------------------------|
|--(7/8)--8----8----8--8--|--(7/8)--8--8----10--8--7--|
|--(7/8)--8----8----8--8--|--(7/8)--8--8----10--8--7--|

 9                      10                        11
|----------------------|-------------------------|----------------------|
|-----------R-        -|-------------------------|-----------R-        -|
|-----------E-        -|-------------------------|-----------E-        -|
|-----------S-        -|-------------------------|-----------S-        -|
|--0--2--2--T-        -|--0--2--2--2----3--2--0--|--2--3--3--T-        -|
|--0--2--2-------------|--0--2--2--2----3--2--0--|--2--3--3-------------|
   ....                   .......       .......     ....

 12                        13                     14
|-------------------------|----------------------|-------------------------|
|-------------------------|-----------R-        -|-------------------------|
|-------------------------|-----------E-        -|-------------------------|
|-------------------------|-----------S-        -|-------------------------|
|--3--3--3--3----5--3--2--|--0--2--2--T-        -|--0--2--2--2----3--2--0--|
|--3--3--3--3----5--3--2--|--0--2--2-------------|--0--2--2--2----3--2--0--|
   .......       .......     ....                   .......       .......

 15                    16                    17
|---------------------|---------------------|-------------------|
|---------------------|---------------------|-------------------|
|---------------------|---------------------|-------------------|
|--5--------7----8----|---------------------|-------------------|
|--3--------5----6----|--5--------7----8----|--7----------------|
|---------------------|--5--------7----8----|--7----------------|


|-------------------|-------------------|-------------------||
|-------------------|-------------------|-------------------||
|-------------------|-------------------|-------------------||
|-------------------|-------------------|-------------------||
|--(7)--------------|--(7)--------------|--(7)--------------||
|--(7)--------------|--(7)--------------|--(7)--------------||



================================================================================
End
================================================================================


Tab summary:        Intro x 1
                    Verse x 2
                    Pre-Chorus x 1
                    Chorus x 1
                    Verse x 2
                    Pre-Chorus x 1
                    Chorus x 1
                    Section 2:
                              Part I x 1
                              Part II x 2
                              Part I x 1
                              Part III x 4
                    Intro Variation x 1
                    Verse x 2
                    Chorus Variation x 1

                    END


-----------------------
Corrections (13/04/09):
-----------------------

* Corrected the transposition of Section II: Part II


-----------------------
Corrections (19/02/09):
-----------------------

* Completely retabbed; the original tuning was incorrect
* Minor corrections to the tab, too numerous and insignificant to list

            
            
Suggest correction
Creating personal tab
Creating personal tab
You can edit any tab online and save it as your Personal.

You can edit, replace or remove any tab part or add personal notes – all changes will be seen only by you.

Personal tabs can be accessed anytime from any device, even offline.
Learn more »
Give kudos to tab author, rate the tab!
1 2 3 4 5
comments
print report bad tab
5 comments total. Showing first comments.
0 reply
chasef 629 Jan 05, 2009 06:53 AM

5 stars great tab

0 reply
paddyirishman 7,750 Jan 05, 2009 07:17 AM

Thanks mate!!

0 reply
paddyirishman 7,750 Jan 29, 2009 07:10 AM

guest
You may want to rate the tab now too:
select rating
Wanna post a correction for this tab? Suggest correction