Oops, an error
Loading. Please wait.

Serpent Tongue tab

version 2
version 2

Whole song

Interactive

930 views 1 this week
1 commentread comment
1 2 3 4 5
2 more votes to show rating
add to favorites
×
Save as Personal and add changes to this tab that will be seen only by you. Learn more ›
×
You can save this tab as Personal to edit and correct it or add notes. All changes will be seen only by you. Learn more »
launch autoscroll
font size
0
reset
how to read this tab
guitar tuner
edit
Autoscroll
slow
fast
+/-
esc
set tempo
stop
================================================================================
                          C R A D L E   O F   F I L T H

                                       -

                           S E R P E N T   T O N G U E
================================================================================


                               DAMNATION AND A DAY
                             (c) Sony Records - 2003
                          http://www.cradleoffilth.com/


                       Tune down one step, then Drop D (to C)
                                   C G C F A D


                                 Tempo = 100 BPM
                              Time Signature = 4/4


                          -----------------------------
                                 Transcribed by

                                 PADDY MCMULLAN
                           stinkypoohpants@yahoo.co.uk

                                   Version 1.0
                                19th February 2009
                             -----------------------

                             Tablature Symbols Used:


 P.M...    -  Palm Mute
 p         -  Pull-Off
 h         -  Hammer-On
 (/)       -  Legato Slide (Blank space indicates length of slide)
 \         -  Slide Down to/Down From (Blank space indicates length of slide)
 /         -  Slide Up To/Up From (Blank space indicates length of slide)
 ( )       -  Ghost Note/Tied Note/Implied Note
 REST      -  Rest and sustain rest for duration of blank space
 |_3_|     -  Triplet Notes
 |___[1]   -  Ending 1/2/3 etc.



================================================================================
Intro: Guitar 1 with Clean Tone (Play 3 times)
================================================================================


* Let notes ring wherever possible *


||--7--------------------|--7--------------7---------|
||-----7-----8-----------|-----7-----10-------10-----|
||--------9--------------|--------9---------------9--|
||-----------------------|---------------------------|
||-----------------------|---------------------------|
||-----------------------|---------------------------|


|--7--------------------|--8--------10----8--------| |
|-----7-----8-----------|-----7--------------7-----| |
|--------9--------------|--------9--------------9--|*|
|-----------------------|--------------------------|*|
|-----------------------|--------------------------| |
|-----------------------|--------------------------| |



Barre the notes on the 7th fret with your first finger throughout



On the third repeat, the Lead Fill enters



================================================================================
Lead Fill: Guitar 4 with Heavy Distortion (Play once)
================================================================================


||------------------------|--------------------------|
||------------------------|--------------------------|
||------------------------|--------------------------|
||--2--- / 5--5--5--------|--7 \ 5----5--7--0--0--0--|
||------------------------|--------------------------|
||------------------------|--------------------------|


|------------------------|---------------------------||
|------------------------|---------------------------||
|------------------------|---------------------------||
|--2--- / 5--5--5--------|--7--7--- / 9--7----9--10--||
|------------------------|---------------------------||
|------------------------|---------------------------||



================================================================================
Verse 1.1: Guitars 2 & 3 with Heavy Distortion (Play twice) [ Tempo = 104 BPM ]
================================================================================


  x                              1
||-----------------------------||------------------------|
||--R-         ----------------||------------------------|
||--E-         ----------------||------------------------|
||--S-         ----------------||--2--- / 5--5--5--------|
||--T-         -2--2-----2--2--||------------------------|
||--------------2--2-----2--2--||------------------------|
                P.M.     ....

 2                         3
|-------------------------|-------------------------|
|-------------------------|-------------------------|
|-------------------------|-------------------------|
|--7--5--5----7--0--0--0--|--2---LS-5--5--5------5--|
|-------------------------|-------------------------|
|-------------------------|-------------------------|

 4
|---------------------------| |
|---------------------------| |
|---------------------------|*|
|--7--7---LS-9--7----9--10--|*|
|---------------------------| |
|---------------------------| |



Bar x serves as a segue between the intro and the verse



================================================================================
Verse 1.2: Guitar 4 (Play twice)
================================================================================


||------------------------|----------------------------|
||------------------------|----------------------------|
||------------------------|----------------------------|
||--5--- / 9--9--9--------|--10--9--9----10 \ 5--5--5--|
||------------------------|----------------------------|
||------------------------|----------------------------|


|-------------------------|-------------------------| |
|-------------------------|-------------------------| |
|-------------------------|-------------------------|*|
|--5--- / 9--9--9------9--|--7--7----9--7----9--10--|*|
|-------------------------|-------------------------| |
|-------------------------|-------------------------| |



================================================================================
Verse 1.3: Guitar 5 with Heavy Distortion (Play twice)
================================================================================


||---------------------------|-------------------------------|
||--8--- / 12--12--12--------|--13 p 12--12----13 \ 8--8--8--|
||---------------------------|-------------------------------|
||---------------------------|-------------------------------|
||---------------------------|-------------------------------|
||---------------------------|-------------------------------|


|---------------------------|------------------------------| |
|--8--- / 12--12--12--------|--13----- / 15--13----15--17--| |
|---------------------------|------------------------------|*|
|---------------------------|------------------------------|*|
|---------------------------|------------------------------| |
|---------------------------|------------------------------| |



================================================================================
Post-Verse: Guitars 2 & 3 (Play once)
================================================================================


  1                            2
||----------------------------|---------------------------|
||----------------------------|--------R-----R------------|
||----------------------------|--------E-----E------------|
||--5 / 7--5 / 8----7--5 / 7--|--------S-----S------------|
||--3 / 5--3 / 6----5--3 / 5--|--3--2--T--3--T--5 / 6--5--|
||----------------------------|--3--2-----3-----5 / 6--5--|

 3                           4
|---------------------------|-------------------------|
|---------------------------|-------------------------|
|---------------------------|-------------------------|
|--5 / 8--5 / 6----5 / 8----|-------------------------|
|--3 / 6--3 / 4----3 / 6----|--3--2----3----5--6 / 8--|
|---------------------------|--3--2----3----5--6 / 8--|

 5                            6
|----------------------------|-------------------------|
|----------------------------|-------------------------|
|----------------------------|-------------------------|
|--5 / 7--5 / 8----7--5 / 7--|-------------------------|
|--3 / 5--3 / 6----5--3 / 5--|--3--2----3----5 / 6--5--|
|----------------------------|--3--2----3----5 / 6--5--|

 7                           8
|---------------------------|-------------------------||
|---------------------------|-------------------------||
|---------------------------|-------------------------||
|--5 / 8--5 / 6----5 / 8----|-------------------------||
|--3 / 6--3 / 4----3 / 6----|--3--2----3----5--6 / 8--||
|---------------------------|--3--2----3----5--6 / 8--||



================================================================================
Section 2.1: Guitars 2 & 3 (Play once)
================================================================================


  1
||--------------------------------------------------------------------|
||--------------------------------------------------------------------|
||--------------------------------------------------------------------|
||--------------------------------------------------------------------|
||--------------------------------------------------------------------|
||--0h3-3-3-3-3-3-3-3-3-3-3-3-4-4-3-0-3-3-3-3-3-3-3-3-3-3-3-3-4-4-3-0-|

 2
|----------------------------------------------|
|----------------------------------------------|
|----------------------------------------------|
|----------------------------------------------|
|----------------------------------------------|
|--6--7-6-0-0-1--4-3-0-0-4--5-4-0-0-5--7-7-4-4-|

 3
|--------------------------------------------------------------------|
|--------------------------------------------------------------------|
|--------------------------------------------------------------------|
|--------------------------------------------------------------------|
|--------------------------------------------------------------------|
|--0h3-3-3-3-3-3-3-3-3-3-3-3-4-4-3-0-3-3-3-3-3-3-3-3-3-3-3-3-4-4-3-0-|

 4
|-----------------------------------------------|
|-----------------------------------------------|
|-----------------------------------------------|
|-----------------------------------------------|
|-----------------------------------------------|
|--6--7-6-0-0-4--6-4-0-0-7--9-7-0-0-8--10-8-0-0-|

 5
|--------------------------------------------------------------------|
|--------------------------------------------------------------------|
|--------------------------------------------------------------------|
|--------------------------------------------------------------------|
|--------------------------------------------------------------------|
|--0h3-3-3-3-3-3-3-3-3-3-3-3-4-4-3-0-3-3-3-3-3-3-3-3-3-3-3-3-4-4-3-0-|

 6
|----------------------------------------------|
|----------------------------------------------|
|----------------------------------------------|
|----------------------------------------------|
|----------------------------------------------|
|--6--7-6-0-0-1--4-3-0-0-4--5-4-0-0-5--7-7-4-4-|

 7
|--------------------------------------------------------------------|
|--------------------------------------------------------------------|
|--------------------------------------------------------------------|
|--------------------------------------------------------------------|
|--------------------------------------------------------------------|
|--0h3-3-3-3-3-3-3-3-3-3-3-3-4-4-3-0-3-3-3-3-3-3-3-3-3-3-3-3-4-4-3-0-|

 8
|-----------------------------------------------|
|-----------------------------------------------|
|-----------------------------------------------|
|-----------------------------------------------|
|-----------------------------------------------|
|--6--7-6-0-0-4--6-4-0-0-7--9-7-0-0-8--10-8-0-0-|

 9
|---------------------------------------------------------------------|
|---------------------------------------------------------------------|
|---------------------------------------------------------------------|
|---------------------------------------------------------------------|
|---------------------------------------------------------------------|
| /101010101010101010101010-11-10-7-101010101010101010101010-11-10-7/ |

 10
|---------------------------------------------------|
|---------------------------------------------------|
|---------------------------------------------------|
|---------------------------------------------------|
|-----------------------------------------5-5-7-5-4-|
|--13--14-13-8-8-8-8-10-8-7-11-11-13-11-7-----------|

 11                               12
|--------------------------------|----------------------------------------||
|--------------------------------|----------------------------------------||
|--------------------------------|----------------------------------------||
|--5--5--5--6-6-6-5--5--5--9-9-9-|----------------------------------------||
|--3--3--3--4-4-4-3--3--3--7-7-7-|--6--7-6-0-4-4-6-4-0-7--9-7-0-8--10-8-0-||
|--------------------------------|----------------------------------------||



The notes in bar 9 are squashed so that they conform with the 80-character limit
imposed by some tab sites.  The squashed notes are all 10 (in groups of 12),
and all notes in the bar are 32nd notes regardless of the spacing between
them.



Bar 12 is played only by guitar 2; guitar 3 plays the following instead:



|-------------------------------------------||
|-------------------------------------------||
|-------------------------------------------||
|-------------------------------------------||
|--6-6-7-6-0-4-4-6-4-0-7-7-9-7-0-8-8-10-8-0-||
|--6-6-7-6-0-4-4-6-4-0-7-7-9-7-0-8-8-10-8-0-||



================================================================================
Section 2.2: Guitar 4 (Play once)
================================================================================


  1
||--------------------------------------------------------------------|
||--------------------------------------------------------------------|
||--------------------------------------------------------------------|
||--0h3-3-3-3-3-3-3-3-3-3-3-3-4-4-3-0-3-3-3-3-3-3-3-3-3-3-3-3-4-4-3-0-|
||--------------------------------------------------------------------|
||--------------------------------------------------------------------|

 2
|------------------------------------------------------------------|
|------------------------------------------------------------------|
|------------------------------------------------------------------|
|--6-6-6-6-7-6-0-0-1-1-1-1-4-3-0-0-4-4-4-4-5-4-0-5-5-5-5-5-7-7-4-4-|
|------------------------------------------------------------------|
|------------------------------------------------------------------|

 3
|--------------------------------------------------------------------|
|--------------------------------------------------------------------|
|--------------------------------------------------------------------|
|--0h3-3-3-3-3-3-3-3-3-3-3-3-4-4-3-0-3-3-3-3-3-3-3-3-3-3-3-3-4-4-3-0-|
|--------------------------------------------------------------------|
|--------------------------------------------------------------------|

 4
|-------------------------------------------------------------------|
|-------------------------------------------------------------------|
|-------------------------------------------------------------------|
|--6-6-6-6-7-6-0-0-4-4-4-4-6-4-0-0-7-7-7-7-9-7-0-0-8-8-8-8-10-8-0-0-|
|-------------------------------------------------------------------|
|-------------------------------------------------------------------|

 5
|--------------------------------------------------------------------|
|--------------------------------------------------------------------|
|--------------------------------------------------------------------|
|--0h3-3-3-3-3-3-3-3-3-3-3-3-4-4-3-0-3-3-3-3-3-3-3-3-3-3-3-3-4-4-3-0-|
|--------------------------------------------------------------------|
|--------------------------------------------------------------------|

 6
|------------------------------------------------------------------|
|------------------------------------------------------------------|
|------------------------------------------------------------------|
|--6-6-6-6-7-6-0-0-1-1-1-1-4-3-0-0-4-4-4-4-5-4-0-5-5-5-5-5-7-7-4-4-|
|------------------------------------------------------------------|
|------------------------------------------------------------------|

 7
|--------------------------------------------------------------------|
|--------------------------------------------------------------------|
|--------------------------------------------------------------------|
|--0h3-3-3-3-3-3-3-3-3-3-3-3-4-4-3-0-3-3-3-3-3-3-3-3-3-3-3-3-4-4-3-0-|
|--------------------------------------------------------------------|
|--------------------------------------------------------------------|

 8
|-------------------------------------------------------------------|
|-------------------------------------------------------------------|
|-------------------------------------------------------------------|
|--6-6-6-6-7-6-0-0-4-4-4-4-6-4-0-0-7-7-7-7-9-7-0-0-8-8-8-8-10-8-0-0-|
|-------------------------------------------------------------------|
|-------------------------------------------------------------------|

 9
|--------------------------------------------------------------------|
|--------------------------------------------------------------------|
|--0h5-5-5-5-5-5-5-5-5-5-5-5-6-5-2-2-5-5-5-5-5-5-5-5-5-5-5-5-6-5-2-2-|
|--------------------------------------------------------------------|
|--------------------------------------------------------------------|
|--------------------------------------------------------------------|

 10
|-----------------------------------------||
|-----------------------------------------||
|--8--9-8-0-3-3-5-3-0-6-6-8-6-0-7-7-9-7-6-||
|-----------------------------------------||
|-----------------------------------------||
|-----------------------------------------||



================================================================================
Pre-Chorus: Guitars 2 & 3 (Play twice)
================================================================================


           |__3_|        |__3_|              |_3_|
||------------------------------|------------------------------|
||------------------------------|------------------------------|
||------------------------------|------------------------------|
||--2------4- / 6-5------4- / 5-|--4----3----------------------|
||--0------2- / 4-3------2- / 3-|--2----1----4---8-5-6---6-- \-|
||------------------------------|------------4---8-5-6---6-- \-|


          |__3_|        |__3_|              |_3_|
|------------------------------|------------------------------| |
|------------------------------|------------------------------| |
|------------------------------|------------------------------|*|
|--2------4- / 6-5------5- \ 4-|--6----4----4- / 9-8--8 /9-7--|*|
|--0------2- / 4-3------3- \ 2-|--4----2----2- / 7-6--6 /7-5--| |
|------------------------------|------------------------------| |



================================================================================
Chorus 1.1: Guitar 2
================================================================================


  1                                    2
||------------------------------------|--------------------------------------|
||------------------------------------|--------------------------------------|
||------------------------------------|--------------------------------------|
||------6-6-6-7-7-----6-6-7-7-----6-6-|---------6-6-7-7-6-6-6-6 /9-9-7-7-7-7-|
||--4-4-----------4-4---------4-4-----|-(4\3)-4-------------4-4 /7-7-5-5-5-5-|
||------------------------------------|--------------------------------------|

 3
|--------------------------------------|
|--------------------------------------|
|--------------------------------------|
|------6-6-6-6-7-7-----6-6-7-7-----6-6-|
|--4-4-------------4-4---------4-4-----|
|--------------------------------------|

 4                                         5
|-----------------------------------------|------------------------------------|
|-----------------------------------------|------------------------------------|
|-----------------------------------------|------------------------------------|
|------6-6-7-7-6-6-6-5 /7-7-7-5-5-5-4-4-4-|------6-6-6-7-7-----6-6-7-7-----6-6-|
|--4-4-------------4-3 /5-5-5-3-3-3-2-2-2-|--4-4-----------4-4---------4-4-----|
|-----------------------------------------|------------------------------------|

 6                                   7
|-----------------------------------|--------------------------------------|
|-----------------------------------|--------------------------------------|
|-----------------------------------|--------------------------------------|
|------6-6-7-7-6-6-6-6 /9-9-7-7-7-7-|------6-6-6-6-7-7-----6-6-7-7-----6-6-|
|--4-4-------------4-4 /7-7-5-5-5-5-|--4-4-------------4-4---------4-4-----|
|-----------------------------------|--------------------------------------|

 8                             9
|----------------------------||-----------------------||
|----------------------------||----------R-          -||
|----------------------------||----------E-          -||
|--------------5--4 / 10--9--||--9--  \--S-          -||
|--5--4--3--2--3--2 / 8---7--||--7--  \--T-          -||
|--5--4--3--2----------------||-----------------------||



================================================================================
Chorus 1.2: Guitar 3
================================================================================


  1                                    2
||------------------------------------|-----------------------------------|
||------------------------------------|-----------------------------------|
||------------------------------------|-----------------------------------|
||------6-6-6-7-7-----6-6-7-7-----6-6-|------6-6-7-7-6-6-6-6 /9-9-7-7-7-7-|
||--4-4-----------4-4---------4-4-----|--4-4-------------4-4 /7-7-5-5-5-5-|
||------------------------------------|-----------------------------------|

 3
|------------------------------------------|
|------------------------------------------|
|------------------------------------------|
|------6-6-6-6-7-7-----6-6-7-7-----6-6-6-6-|
|--4-4-------------4-4---------4-4---------|
|------------------------------------------|

 4                                         5
|-----------------------------------------|------------------------------------|
|-----------------------------------------|------------------------------------|
|-----------------------------------------|------------------------------------|
|--6---6-6-7-7-6-6-6-5 /7-7-7-5-5-5-4-4-4-|------6-6-6-7-7-----6-6-7-7-----6-6-|
|----4-------------4-3 /5-5-5-3-3-3-2-2-2-|--4-4-----------4-4---------4-4-----|
|-----------------------------------------|------------------------------------|

 6                                   7
|-----------------------------------|------------------------------------------|
|-----------------------------------|------------------------------------------|
|-----------------------------------|------------------------------------------|
|------6-6-7-7-6-6-6-6 /9-9-7-7-7-7-|------6-6-6-6-7-7-----6-6-7-7-----6-6-6-6-|
|--4-4-------------4-4 /7-7-5-5-5-5-|--4-4-------------4-4---------4-4---------|
|-----------------------------------|------------------------------------------|

 8                             9
|----------------------------||-----------------------||
|----------------------------||----------R-          -||
|----------------------------||----------E-          -||
|--------------5--4 / 10--9--||--9--  \--S-          -||
|--5--4--3--2--3--2 / 8---7--||--7--  \--T-          -||
|--5--4--3--2----------------||-----------------------||



================================================================================
Guitar 1 plays the Intro twice
================================================================================


Guitars 2 & 3 play the following as a segue between the Intro and the Verse:


||----------------------------------|
||----------------------------------|
||----------------------------------|
||----------------------------------|
||-----2--2----------2--2-----2--2--|
||-----2--2----------2--2-----2--2--|
       ....          ....     ....



================================================================================
Play the Verse once
================================================================================

================================================================================
Play the Post Verse once
================================================================================

================================================================================
Play Section 2 once
================================================================================

================================================================================
Play the Pre-Chorus twice
================================================================================

================================================================================
Play the Chorus once [Variations outline below]
================================================================================

================================================================================
Chorus Variation for Guitar 2:
================================================================================

  1
||--------------------------------------|
||--------------------------------------|
||--------------------------------------|
||------6-6-6-7-7-----6-6-6-7-7-----6-6-|
||--4-4-----------4-4-----------4-4-----|
||--------------------------------------|

 2
|------------------------------------------|
|------------------------------------------|
|------------------------------------------|
|---------6-6-6-6-7-7-6-6-6-6 /9-9-7-7-7-7-|
|-(4\3)-4-----------------4-4 /7-7-5-5-5-5-|
|------------------------------------------|

 3
|----------------------------------------|
|----------------------------------------|
|----------------------------------------|
|------6-6-6-6-7-7-7-----6-6-7-7-----6-6-|
|--4-4---------------4-4---------4-4-----|
|----------------------------------------|

 4
|---------------------------------------------|
|---------------------------------------------|
|---------------------------------------------|
|------6-6-6-6-7-7-6-6-6-5 /7-7-7-5-5-5-4-4-4-|
|--4-4-----------------4-3 /5-5-5-3-3-3-2-2-2-|
|---------------------------------------------|

 5                                       6
|---------------------------------------|--------------------------------------|
|---------------------------------------|--------------------------------------|
|---------------------------------------|--------------------------------------|
|-----6-6-6-6-7-7-----6-6-6-7-7-----6-6-|---------6-6-7-7-6-6-6-6 /9-9-7-7-7-7-|
|-4-4-------------4-4-----------4-4-----|-(4\3)-4-------------4-4 /7-7-5-5-5-5-|
|---------------------------------------|--------------------------------------|

 7                                        8
|----------------------------------------|----------------------------||
|----------------------------------------|----------------------------||
|----------------------------------------|----------------------------||
|------6-6-6-6-7-7-7-----6-6-7-7-----6-6-|--------------5--4 / 10--9--||
|--4-4---------------4-4---------4-4-----|--5--4--3--2--3--2 / 8---7--||
|----------------------------------------|--5--4--3--2----------------||



================================================================================
Chorus Variation for Guitar 3
================================================================================


  1                                    2
||------------------------------------|-----------------------------------|
||------------------------------------|-----------------------------------|
||------------------------------------|-----------------------------------|
||------6-6-6-7-7-----6-6-7-7-----6-6-|------6-6-7-7-6-6-6-6 /9-9-7-7-7-7-|
||--4-4-----------4-4---------4-4-----|--4-4-------------4-4 /7-7-5-5-5-5-|
||------------------------------------|-----------------------------------|

 3
|--------------------------------------------|
|--------------------------------------------|
|--------------------------------------------|
|------6-6-6-6-7-7-----6-6-6-7-7-----6-6-6-6-|
|--4-4-------------4-4-----------4-4---------|
|--------------------------------------------|

 4                                         5
|-----------------------------------------|------------------------------------|
|-----------------------------------------|------------------------------------|
|-----------------------------------------|------------------------------------|
|--6---6-6-7-7-6-6-6-5 /7-7-7-5-5-5-4-4-4-|------6-6-6-7-7-----6-6-7-7-----6-6-|
|----4---------4-4-4-3 /5-5-5-3-3-3-2-2-2-|--4-4-----------4-4---------4-4-----|
|-----------------------------------------|------------------------------------|

 6
|---------------------------------------|
|---------------------------------------|
|---------------------------------------|
|------6-6-6-7-7-7-6-6-6-6 /9-9-7-7-7-7-|
|--4-4-----------------4-4 /7-7-5-5-5-5-|
|---------------------------------------|

 7                                            8
|--------------------------------------------|----------------------------||
|--------------------------------------------|----------------------------||
|--------------------------------------------|----------------------------||
|------6-6-6-6-7-7-----6-6-6-7-7-----6-6-6-6-|--------------5--4 / 10--9--||
|--4-4-------------4-4-----------4-4---------|--5--4--3--2--3--2 / 8---7--||
|--------------------------------------------|--5--4--3--2----------------||



================================================================================
Outro: Guitars 2 & 3 (Play once)
================================================================================


  1                          2
||--------------------------|--------------------------|
||--------------------------|--------------------------|
||-----5--6-----5--6-----5--|-----5--6--5--5 / 8--6----|
||--3--------3--------3-----|--3-----------3 / 6--4----|
||--------------------------|--------------------------|
||--------------------------|--------------------------|
    ......................     ..........

 3                          4
|--------------------------|----------------------------|
|--------------------------|----------------------------|
|-----5--6-----5--6-----5--|----------------------------|
|--3--------3--------3-----|--------------5--4 / 10--9--|
|--------------------------|--5--4--3--2--3--2 / 8---7--|
|--------------------------|--5--4--3--2----------------|
   ......................

 5
|----------------------------------------------|
|----------------------------------------------|
|--------8-8-8-9-9-9-----8-8-8-9-9-9-----8-8-8-|
|--6-6-6-------------6-6-------------6-6-------|
|----------------------------------------------|
|----------------------------------------------|

 6
|--------------------------------------------------|
|--------------------------------------------------|
|------8-8-8-8-9-9-9-9-8-8-8-8-8--11-11-11-9-9-9-9-|
|--6-6-------------------------6--9--9--9--7-7-7-7-|
|------------------------------6--9--9--9--7-7-7-7-|
|--------------------------------------------------|

 7
|------------------------------------------------------------------|
|------------------------------------------------------------------|
|----------8-8-8-8-9-9-9-9---------8-8-8-8-9-9-9-9---------8-8-8-8-|
|--6-6-6-6-----------------6-6-6-6-----------------6-6-6-6---------|
|------------------------------------------------------------------|
|------------------------------------------------------------------|

 8                            9
|----------------------------||-----------------------||
|----------------------------||----------R-          -||
|----------------------------||----------E-          -||
|--------------5--4 / 10--9--||--9--  \--S-          -||
|--5--4--3--2--3--2 / 8---7--||--7--  \--T-          -||
|--5--4--3--2----------------||-----------------------||



================================================================================
Guitar 1 plays the Intro twice, ending on the following:
================================================================================


||--7-------------||
||-----R-        -||
||-----E-        -||
||-----S-        -||
||-----T-        -||
||----------------||



================================================================================
End
================================================================================


Tab summary:        Intro x 3 + Lead Fill x 1
                    Verse x 2
                    Post-Verse x 1
                    Section 2 x 1
                    Pre-Chorus x 2
                    Chorus x 1
                    Intro x 2
                    Verse x 2
                    Post-Verse x 1
                    Section 2 x 1
                    Pre-Chorus x 2
                    Chorus x 1
                    Outro x 1
                    Intro x 2

                    END

            
            
Suggest correction
Creating personal tab
Creating personal tab
You can edit any tab online and save it as your Personal.

You can edit, replace or remove any tab part or add personal notes – all changes will be seen only by you.

Personal tabs can be accessed anytime from any device, even offline.
Learn more »
Give kudos to tab author, rate the tab!
1 2 3 4 5
comments
print report bad tab
1 comment total.
0 reply
chasef 629 Feb 20, 2009 11:38 AM

Perfect 5/5

guest
You may want to rate the tab now too:
select rating
Wanna post a correction for this tab? Suggest correction