Oops, an error
Loading. Please wait.

Siding With The Titans tab

220 views 1 this week
no commentswrite comment
1 2 3 4 5
1 last vote to show rating
add to favorites
×
Save as Personal and add changes to this tab that will be seen only by you. Learn more ›
×
You can save this tab as Personal to edit and correct it or add notes. All changes will be seen only by you. Learn more »
launch autoscroll
font size
0
reset
how to read this tab
guitar tuner
edit
Autoscroll
slow
fast
+/-
esc
set tempo
stop
CRADLE OF FILTH

SIDING WITH THE TITANS

DGCFAD


TABBED BY andherembrace




-------------------------------------------------------|
-------------------------------------------------------|
-------------------------------------------------------|
-9--9-9-9-9-9-9-9-9-9-9-9-9-9-9-9-9-9-9-9-9-9-9-9-8-8--|
-7--7-7-7-7-7-7-7-7-7-7-7-7-7-7-7-7-7-7-7-7-7-7-7\6-6--|
-------------------------------------------------------|


----------------------------------------------|
----------------------------------------------|
----------------------------------------------|
-9--9-9-9-9-9-9-9-9-9-9-9-9-9-9-9-8-8--8-6-6--|
-7--7-7-7-7-7-7-7-7-7-7-7-7-7-7-7\6-6--6\4-4--|
----------------------------------------------|


-------------------------------------------------------|
-------------------------------------------------------|
-------------------------------------------------------|
-9--9-9-9-9-9-9-9-9-9-9-9-9-9-9-9-9-9-9-9-9-9-9-9-8-8--|
-7--7-7-7-7-7-7-7-7-7-7-7-7-7-7-7-7-7-7-7-7-7-7-7\6-6--|
-------------------------------------------------------|

-----------------------------------------------------|
-----------------------------------------------------|
-----------------------------------------------------|
-5-------------------------6-------------------------|
-3-3-3-3-3-3-3-3-3-4-4-3-3-4-4-4-4-4-4-4-4-4-4-4-4-4-|
-----------------------------------------------------|
   * * * * * * * *           * * * * * * * * * * * *




0:11


-------------------------------------------------------|
-------------------------------------------------------|
-------------------------------------------------------|
-9--9-9-9-9-9-9-9-9-9-9-9-9-9-9-9-9-9-9-9-9-9-9-9-8-8--|
-7--7-7-7-7-7-7-7-7-7-7-7-7-7-7-7-7-7-7-7-7-7-7-7\6-6--|
-------------------------------------------------------|


----------------------------------------------|
----------------------------------------------|
----------------------------------------------|
-9--9-9-9-9-9-9-9-9-9-9-9-9-9-9-9-8-8--8-6-6--|
-7--7-7-7-7-7-7-7-7-7-7-7-7-7-7-7\6-6--6\4-4--|
----------------------------------------------|


-------------------------------------------------------|
-------------------------------------------------------|
-------------------------------------------------------|
-9--9-9-9-9-9-9-9-9-9-9-9-9-9-9-9-9-9-9-9-9-9-9-9-8-8--|
-7--7-7-7-7-7-7-7-7-7-7-7-7-7-7-7-7-7-7-7-7-7-7-7\6-6--|
-------------------------------------------------------|


-----------------------------------------------------|
-----------------------------------------------------|
-----------------------------------------------------|
-5-------------------------6-------------------------|
-3-3-3-3-3-3-3-3-3-4-4-3-3-4-4-4-4-4-4-4-4-4-4-4-4-4-|
-----------------------------------------------------|
   * * * * * * * *           * * * * * * * * * * * *



0:21

1
---------------------------------------------------------------------------------|
---------------------------------------------------------------------------------|
-9-9-9-9-9-9-9-9-9-9-9-9-9-9-9-9-12-12-12-12-12-12-12-12-12-12-12-12-12-12-12-12-|
---------------------------------------------------------------------------------|
---------------------------------------------------------------------------------|
---------------------------------------------------------------------------------|

2
-------------------------------------------------------------------|
-------------------------------------------------------------------|
-------------------------------------------------------------------|
-------------------------------------------------------------------|
-7-7-7-7-7-7-7-7-7-7-7-7-10-7-0-0-7-7-7-7-7-7-7-7-7-7-7-7-10-7-0-0-|
-------------------------------------------------------------------|


1
-------------------------------------------------------------------------------------|
-------------------------------------------------------------------------------------|
-11-11-11-11-11-11-11-11-11-11-11-11-9-9-9-9-11-11-11-11-9-9-9-9---------------------|
-----------------------------------------------------------------12-12-12-12-9-9-9-9-|
-------------------------------------------------------------------------------------|
-------------------------------------------------------------------------------------|

2
----------------------------------------------------------------------|
----------------------------------------------------------------------|
----------------------------------------------------------------------|
----------------------------------------------------------------------|
-7-7-7-7-7-7-7-7-7-7-7-7-10-7-0-0-7-7-7-7-9-9-9-9-10-10-10-10-9-9-9-9-|
----------------------------------------------------------------------|





1
---------------------------------------------------------------------------------|
---------------------------------------------------------------------------------|
-9-9-9-9-9-9-9-9-9-9-9-9-9-9-9-9-12-12-12-12-12-12-12-12-12-12-12-12-12-12-12-12-|
---------------------------------------------------------------------------------|
---------------------------------------------------------------------------------|
---------------------------------------------------------------------------------|

2
-------------------------------------------------------------------|
-------------------------------------------------------------------|
-------------------------------------------------------------------|
-------------------------------------------------------------------|
-7-7-7-7-7-7-7-7-7-7-7-7-10-7-0-0-7-7-7-7-7-7-7-7-7-7-7-7-10-7-0-0-|
-------------------------------------------------------------------|




1
----------------------------------------------------------------------------------------------------|
----------------------------------------------------------------------------------------------------|
11-11-11-11-12-12-12-12-12-12-12-12-12-12-12-12-11-11-11-11-12-12-12-12-11-11-11-11-9999-11-11-11-11|
----------------------------------------------------------------------------------------------------|
----------------------------------------------------------------------------------------------------|
----------------------------------------------------------------------------------------------------|

2
---------------------------------------------------------------------------------|
---------------------------------------------------------------------------------|
---------------------------------------------------------------------------------|
---------------------------------------------------------------------------------|
-10-10-10-10-10-10-10-10-10-10-10-10-9-9-9-9-10-10-10-10-12-12-12-12-14-14-14-14-|
---------------------------------------------------------------------------------|






1
---------------------------------------------------------------------------------|
---------------------------------------------------------------------------------|
-9-9-9-9-9-9-9-9-9-9-9-9-9-9-9-9-12-12-12-12-12-12-12-12-12-12-12-12-12-12-12-12-|
---------------------------------------------------------------------------------|
---------------------------------------------------------------------------------|
---------------------------------------------------------------------------------|

2
-------------------------------------------------------------------|
-------------------------------------------------------------------|
-------------------------------------------------------------------|
-------------------------------------------------------------------|
-7-7-7-7-7-7-7-7-7-7-7-7-10-7-0-0-7-7-7-7-7-7-7-7-7-7-7-7-10-7-0-0-|
-------------------------------------------------------------------|


1
-------------------------------------------------------------------------------------|
-------------------------------------------------------------------------------------|
-11-11-11-11-11-11-11-11-11-11-11-11-9-9-9-9-11-11-11-11-9-9-9-9---------------------|
-----------------------------------------------------------------12-12-12-12-9-9-9-9-|
-------------------------------------------------------------------------------------|
-------------------------------------------------------------------------------------|

2
----------------------------------------------------------------------|
----------------------------------------------------------------------|
----------------------------------------------------------------------|
----------------------------------------------------------------------|
-7-7-7-7-7-7-7-7-7-7-7-7-10-7-0-0-7-7-7-7-9-9-9-9-10-10-10-10-9-9-9-9-|
----------------------------------------------------------------------|





1
---------------------------------------------------------------------------------|
---------------------------------------------------------------------------------|
-9-9-9-9-9-9-9-9-9-9-9-9-9-9-9-9-12-12-12-12-12-12-12-12-12-12-12-12-12-12-12-12-|
---------------------------------------------------------------------------------|
---------------------------------------------------------------------------------|
---------------------------------------------------------------------------------|

2
-------------------------------------------------------------------|
-------------------------------------------------------------------|
-------------------------------------------------------------------|
-------------------------------------------------------------------|
-7-7-7-7-7-7-7-7-7-7-7-7-10-7-0-0-7-7-7-7-7-7-7-7-7-7-7-7-10-7-0-0-|
-------------------------------------------------------------------|




1
------------------------------------------------------------------------|
------------------------------------------------------------------------|
11-11-11-11-12-12-12-12-12-12-12-12-12-12-12-12-11-11-11-11-------------|
------------------------------------------------------------5--5--8--8--|
------------------------------------------------------------3--3--6--6--|
------------------------------------------------------------3--3--6--6--|

2
---------------------------------------------------------|
---------------------------------------------------------|
---------------------------------------------------------|
---------------------------------------------5--5--8--8--|
-10-10-10-10-10-10-10-10-10-10-10-10-9-9-9-9-3--3--6--6--|
---------------------------------------------3--3--6--6--|





0:43


-------------------------------------------------------|
-------------------------------------------------------|
-------------------------------------------------------|
-9--9-9-9-9-9-9-9-9-9-9-9-9-9-9-9-9-9-9-9-9-9-9-9-8-8--|
-7--7-7-7-7-7-7-7-7-7-7-7-7-7-7-7-7-7-7-7-7-7-7-7\6-6--|
-------------------------------------------------------|


----------------------------------------------|
----------------------------------------------|
----------------------------------------------|
-9--9-9-9-9-9-9-9-9-9-9-9-9-9-9-9-8-8--8-6-6--|
-7--7-7-7-7-7-7-7-7-7-7-7-7-7-7-7\6-6--6\4-4--|
----------------------------------------------|


-------------------------------------------------------|
-------------------------------------------------------|
-------------------------------------------------------|
-9--9-9-9-9-9-9-9-9-9-9-9-9-9-9-9-9-9-9-9-9-9-9-9-8-8--|
-7--7-7-7-7-7-7-7-7-7-7-7-7-7-7-7-7-7-7-7-7-7-7-7\6-6--|
-------------------------------------------------------|


-----------------------------------------------------|
-----------------------------------------------------|
-----------------------------------------------------|
-5-------------------------6-------------------------|
-3-3-3-3-3-3-3-3-3-4-4-3-3-4-4-4-4-4-4-4-4-4-4-4-4-4-|
-----------------------------------------------------|
   * * * * * * * *           * * * * * * * * * * * *


0:53
-----------------------------------------------------------------------------|
-----------------------------------------------------------------------------|
-----------------------------------------------------------------------------|
-11----11-11--11-11-11--10----10-10--10-10-8--7---7-7--7-7-7--7---7-7--7-7-7-|
-11-11-11-11--11-11-11--10-10-10-10--10-10-8--7-7-7-7--7-7-7--7-7-7-7--7-7-7-|
-9--9--9--9---9--9--9---8--8--8--8---8---8-6--5-5-5-5--5-5-5--5-5-5-5--5-5-5-|
                        

-----------------------------------------------------------------------------|
-----------------------------------------------------------------------------|
-----------------------------------------------------------------------------|
-11----11-11--11-11-11--10----10-10--10-10-8--7---7-7--7-7-7--8---8-8--8-8-8-|
-11-11-11-11--11-11-11--10-10-10-10--10-10-8--7-7-7-7--7-7-7--8-8-8-8--8-8-8-|
-9--9--9--9---9--9--9---8--8--8--8---8---8-6--5-5-5-5--5-5-5--6-6-6-6--6-6-6-|
                        

-----------------------------------------------------------------------------|
-----------------------------------------------------------------------------|
-----------------------------------------------------------------------------|
-11----11-11--11-11-11--10----10-10--10-10-8--7---7-7--7-7-7--7---7-7--7-7-7-|
-11-11-11-11--11-11-11--10-10-10-10--10-10-8--7-7-7-7--7-7-7--7-7-7-7--7-7-7-|
-9--9--9--9---9--9--9---8--8--8--8---8---8-6--5-5-5-5--5-5-5--5-5-5-5--5-5-5-|
                        



1:09
-------------------------------------------------------------|
-------------------------------------------------------------|
-------------------------------------------------------------|
-------------------------------------------------------------|
-------------------------------------------------------------|
-9-9-9-9-9-9-8-8-9-9-8-6-8-8-8-8-8-8-6-6-8-8-6-8-5-5-5-5-5-5-|


--------------------------------------|
--------------------------------------|
--------------------------------------|
--------------------------------------|
--------------------------------------|
-6-6-8-8-6-6-5-5-5-5-5-5-9-9-8-8-6-6--|


-------------------------------------------------------------|
-------------------------------------------------------------|
-------------------------------------------------------------|
-------------------------------------------------------------|
-------------------------------------------------------------|
-9-9-9-9-9-9-8-8-9-9-8-6-8-8-8-8-8-8-6-6-8-8-6-8-5-5-5-5-5-5-|


----------------------------------------------|
----------------------------------------------|
----------------------------------------------|
--------------6-6-6-6-6-6-6-6-6-6-6-6-6-6-6-6-|
----------------------------------------------|
-5-5-5-5-5-5----------------------------------|



1:20

---------------------------------------------------------------------------------|
---------------------------------------------------------------------------------|
---------------------------------------------------------------------------------|
-7-7-7-7-7-7-7-7-7-7-7-7-7-7-7-7-10-10-10-10-10-10-10-10-10-10-10-10-10-10-10-10-|
---------------------------------------------------------------------------------|
---------------------------------------------------------------------------------|

--------------------------------------------------------------------|
--------------------------------------------------------------------|
--------------------------------------------------------------------|
7-7-7-7-7-7-7-7-7-7-7-7-10-10-10-10-9-9-9-9-9-9-9-9-9-9-9-9-9-9-9-9-|
--------------------------------------------------------------------|
--------------------------------------------------------------------|

----------------------------------------------------------------|
-------------------------_______________________----------------|
-------------------------)| | | | | | | | | | |(----------------|
7-7-7-7-7-7-7-7-7-7-7-7-7-7-7-7-7-7-7-7-7-7-7-7-7-7-7-7-7-7-7-7-|
----------------------------------------------------------------|
----------------------------------------------------------------|


------------------------------|
------------------------------|
------------------------------|
10-10-10-10---------8--8--8---|
-8--8--8--8---------6--6--6---|
------------0-0-0-0-----------|
            * * * *


1:31
------------------------------------------------------------------------------------|
------------------------------------------------------------------------------------|
------------------------------------------------------------------------------------|
-7--7--7--7--7--7--7--7--7--7--7--7--10--10--10--10--10--10--10--10--10--10--10--10-|
------------------------------------------------------------------------------------|
------------------------------------------------------------------------------------|

-----------------------------------------------------------------------------------------------|
-----------------------------------------------------------------------------------------------|
-----------------------------------------------------------------------------------------------|
7--7---7---7---7---7---7---7---7---7---7--7--10--10--10--10--9--9--9--9--9--9--9--9--9--9--9--9|
-----------------------------------------------------------------------------------------------|
-----------------------------------------------------------------------------------------------|


----------------------------------------------------------------|
-------------------------_______________________----------------|
-------------------------)| | | | | | | | | | |(----------------|
7-7-7-7-7-7-7-7-7-7-7-7-7-7-7-7-7-7-7-7-7-7-7-7-7-7-7-7-7-7-7-7-|
----------------------------------------------------------------|
----------------------------------------------------------------|


------------------------------|
------------------------------|
------------------------------|
10-10-10-10---------8--8--8---|
-8--8--8--8---------6--6--6---|
------------0-0-0-0-----------|
            * * * *




1:41

------------------------------------------------------------|
------------------------------------------------------------|
------------------------------------------------------------|
------------------------------------------------------------|
-5-4-4--7-5-5--8-7-7--8-7-8-7--5-4-4--7-5-5--8-7-7--8-7-8-7-|
-3-2-2--5-3-3--6-5-5--6-5-6-5--3-2-2--5-3-3--6-5-5--6-5-6-5-|

------------------------------------------------------------|
------------------------------------------------------------|
------------------------------------------------------------|
------------------------------------------------------------|
-5-4-4--7-5-5--8-7-7--8-7-8-7--5-4-4--7-5-5--8-7-7--8-7-8-7-|
-3-2-2--5-3-3--6-5-5--6-5-6-5--3-2-2--5-3-3--6-5-5--6-5-6-5-|

------------------------------------------------------------|
------------------------------------------------------------|
------------------------------------------------------------|
------------------------------------------------------------|
-5-4-4--7-5-5--8-7-7--8-7-8-7--5-4-4--7-5-5--8-7-7--8-7-8-7-|
-3-2-2--5-3-3--6-5-5--6-5-6-5--3-2-2--5-3-3--6-5-5--6-5-6-5-|

------------------------------------------------------------|
------------------------------------------------------------|
------------------------------------------------------------|
------------------------------------------------------------|
-5-4-4--7-5-5--8-7-7--8-7-8-7--5-4-4--7-5-5--8-7-7--8-7-8-7-|
-3-2-2--5-3-3--6-5-5--6-5-6-5--3-2-2--5-3-3--6-5-5--6-5-6-5-|

------------------------------------------------------------|
------------------------------------------------------------|
------------------------------------------------------------|
------------------------------------------------------------|
-5-4-4--7-5-5--8-7-7--8-7-8-7--5-4-4--7-5-5--8-7-7--8-7-8-7-|
-3-2-2--5-3-3--6-5-5--6-5-6-5--3-2-2--5-3-3--6-5-5--6-5-6-5-|




2:08

--------------------------------------------------------------------|
--------------------------------------------------------------------|
--------------------------------------------------------------------|
--------6----6--5---5---3--3--3-2----------6---6--6--5--3---6--5--3-|
-4---4--4----4--3---3---1--1--1-0--4---4---4---4--4--3--1---4--3--1-|
-2---2--4----4--3---3--------------2---2---4---4--------------------|


---------------------------------------------------------------------------------------------|
---------------------------------------------------------------------------------------------|
---------------------------------------------------------------------------------------------|
--------6----6--5---5---3--3--3-2----------6---6--6--5-5-5-5---------------------------------|
-4---4--4----4--3---3---1--1--1-0--4---4---4---4--4--3-3-3-3---------------------------------|
-2---2--4----4--3---3--------------2---2---4---4--4--3-3-3-3-6-6-6-6-6-6-5-5-5-5-3-3-3-3-3-3-|
                                                             * * * * * * * * * * * * * * * *





2:30
------------------------------------------------------------|
------------------------------------------------------------|
------------------------------------------------------------|
------------------------------------------------------------|
-5-4-4--7-5-5--8-7-7--8-7-8-7--5-4-4--7-5-5--8-7-7--8-7-8-7-|
-3-2-2--5-3-3--6-5-5--6-5-6-5--3-2-2--5-3-3--6-5-5--6-5-6-5-|

------------------------------------------------------------|
------------------------------------------------------------|
------------------------------------------------------------|
------------------------------------------------------------|
-5-4-4--7-5-5--8-7-7--8-7-8-7--5-4-4--7-5-5--8-7-7--8-7-8-7-|
-3-2-2--5-3-3--6-5-5--6-5-6-5--3-2-2--5-3-3--6-5-5--6-5-6-5-|






3:02


1
---------------------------------------------------------------------------------|
---------------------------------------------------------------------------------|
-9-9-9-9-9-9-9-9-9-9-9-9-9-9-9-9-12-12-12-12-12-12-12-12-12-12-12-12-12-12-12-12-|
---------------------------------------------------------------------------------|
---------------------------------------------------------------------------------|
---------------------------------------------------------------------------------|

2
-------------------------------------------------------------------|
-------------------------------------------------------------------|
-------------------------------------------------------------------|
-------------------------------------------------------------------|
-7-7-7-7-7-7-7-7-7-7-7-7-10-7-0-0-7-7-7-7-7-7-7-7-7-7-7-7-10-7-0-0-|
-------------------------------------------------------------------|


1
-------------------------------------------------------------------------------------|
-------------------------------------------------------------------------------------|
-11-11-11-11-11-11-11-11-11-11-11-11-9-9-9-9-11-11-11-11-9-9-9-9---------------------|
-----------------------------------------------------------------12-12-12-12-9-9-9-9-|
-------------------------------------------------------------------------------------|
-------------------------------------------------------------------------------------|

2
----------------------------------------------------------------------|
----------------------------------------------------------------------|
----------------------------------------------------------------------|
----------------------------------------------------------------------|
-7-7-7-7-7-7-7-7-7-7-7-7-10-7-0-0-7-7-7-7-9-9-9-9-10-10-10-10-9-9-9-9-|
----------------------------------------------------------------------|





1
---------------------------------------------------------------------------------|
---------------------------------------------------------------------------------|
-9-9-9-9-9-9-9-9-9-9-9-9-9-9-9-9-12-12-12-12-12-12-12-12-12-12-12-12-12-12-12-12-|
---------------------------------------------------------------------------------|
---------------------------------------------------------------------------------|
---------------------------------------------------------------------------------|

2
-------------------------------------------------------------------|
-------------------------------------------------------------------|
-------------------------------------------------------------------|
-------------------------------------------------------------------|
-7-7-7-7-7-7-7-7-7-7-7-7-10-7-0-0-7-7-7-7-7-7-7-7-7-7-7-7-10-7-0-0-|
-------------------------------------------------------------------|




1
----------------------------------------------------------------------------------------------------|
----------------------------------------------------------------------------------------------------|
11-11-11-11-12-12-12-12-12-12-12-12-12-12-12-12-11-11-11-11-12-12-12-12-11-11-11-11-9999-11-11-11-11|
----------------------------------------------------------------------------------------------------|
----------------------------------------------------------------------------------------------------|
----------------------------------------------------------------------------------------------------|

2
---------------------------------------------------------------------------------|
---------------------------------------------------------------------------------|
---------------------------------------------------------------------------------|
---------------------------------------------------------------------------------|
-10-10-10-10-10-10-10-10-10-10-10-10-9-9-9-9-10-10-10-10-12-12-12-12-14-14-14-14-|
---------------------------------------------------------------------------------|








1
---------------------------------------------------------------------------------|
---------------------------------------------------------------------------------|
-9-9-9-9-9-9-9-9-9-9-9-9-9-9-9-9-12-12-12-12-12-12-12-12-12-12-12-12-12-12-12-12-|
---------------------------------------------------------------------------------|
---------------------------------------------------------------------------------|
---------------------------------------------------------------------------------|

2
-------------------------------------------------------------------|
-------------------------------------------------------------------|
-------------------------------------------------------------------|
-------------------------------------------------------------------|
-7-7-7-7-7-7-7-7-7-7-7-7-10-7-0-0-7-7-7-7-7-7-7-7-7-7-7-7-10-7-0-0-|
-------------------------------------------------------------------|


1
-------------------------------------------------------------------------------------|
-------------------------------------------------------------------------------------|
-11-11-11-11-11-11-11-11-11-11-11-11-9-9-9-9-11-11-11-11-9-9-9-9---------------------|
-----------------------------------------------------------------12-12-12-12-9-9-9-9-|
-------------------------------------------------------------------------------------|
-------------------------------------------------------------------------------------|

2
----------------------------------------------------------------------|
----------------------------------------------------------------------|
----------------------------------------------------------------------|
----------------------------------------------------------------------|
-7-7-7-7-7-7-7-7-7-7-7-7-10-7-0-0-7-7-7-7-9-9-9-9-10-10-10-10-9-9-9-9-|
----------------------------------------------------------------------|





1
---------------------------------------------------------------------------------|
---------------------------------------------------------------------------------|
-9-9-9-9-9-9-9-9-9-9-9-9-9-9-9-9-12-12-12-12-12-12-12-12-12-12-12-12-12-12-12-12-|
---------------------------------------------------------------------------------|
---------------------------------------------------------------------------------|
---------------------------------------------------------------------------------|

2
-------------------------------------------------------------------|
-------------------------------------------------------------------|
-------------------------------------------------------------------|
-------------------------------------------------------------------|
-7-7-7-7-7-7-7-7-7-7-7-7-10-7-0-0-7-7-7-7-7-7-7-7-7-7-7-7-10-7-0-0-|
-------------------------------------------------------------------|




1
----------------------------------------------------------------------------------------------------|
----------------------------------------------------------------------------------------------------|
11-11-11-11-12-12-12-12-12-12-12-12-12-12-12-12-11-11-11-11-12-12-12-12-11-11-11-11-9999-11-11-11-11|
----------------------------------------------------------------------------------------------------|
----------------------------------------------------------------------------------------------------|
----------------------------------------------------------------------------------------------------|

2
---------------------------------------------------------------------------------|
---------------------------------------------------------------------------------|
---------------------------------------------------------------------------------|
---------------------------------------------------------------------------------|
-10-10-10-10-10-10-10-10-10-10-10-10-9-9-9-9-10-10-10-10-12-12-12-12-14-14-14-14-|
---------------------------------------------------------------------------------|








3:22

-----------------------------------------------------|
-----------------------------------------------------|
-----------------------------------------------------|
-9--9--9--8-8-8-8-7-7-5-5--9--9--9--8-8-8------------|
-7--7--7--6-6-6-6-5-5-3-3--7--7--7--6-6-6---5-5-4-4--|
-7--7--7-------------------7--7--7--------0-3-3-2-2--|



-------------------------------------------------------------------------------------|
-------------------------------------------------------------------------------------|
-------------------------------------------------------------------------------------|
-9--9--9--8-8-8-8-7-7-5-5--14-14-14-14-14-14-14-14-14-14-14-14-11-11-11-11-5-5-7-8-8-|
-7--7--7--6-6-6-6-5-5-3-3--12-12-12-12-12-12-12-12-12-12-12-12--9--9--9--9-3-3-5-6-6-|
-7--7--7-----------------------------------------------------------------------------|





3:33

-------------------------------------------------------|
-------------------------------------------------------|
-------------------------------------------------------|
-9--9-9-9-9-9-9-9-9-9-9-9-9-9-9-9-9-9-9-9-9-9-9-9-8-8--|
-7--7-7-7-7-7-7-7-7-7-7-7-7-7-7-7-7-7-7-7-7-7-7-7\6-6--|
-------------------------------------------------------|


----------------------------------------------|
----------------------------------------------|
----------------------------------------------|
-9--9-9-9-9-9-9-9-9-9-9-9-9-9-9-9-8-8--8-6-6--|
-7--7-7-7-7-7-7-7-7-7-7-7-7-7-7-7\6-6--6\4-4--|
----------------------------------------------|


-------------------------------------------------------|
-------------------------------------------------------|
-------------------------------------------------------|
-9--9-9-9-9-9-9-9-9-9-9-9-9-9-9-9-9-9-9-9-9-9-9-9-8-8--|
-7--7-7-7-7-7-7-7-7-7-7-7-7-7-7-7-7-7-7-7-7-7-7-7\6-6--|
-------------------------------------------------------|

-----------------------------------------------------|
-----------------------------------------------------|
-----------------------------------------------------|
-5-------------------------6-------------------------|
-3-3-3-3-3-3-3-3-3-4-4-3-3-4-4-4-4-4-4-4-4-4-4-4-4-4-|
-----------------------------------------------------|
   * * * * * * * *           * * * * * * * * * * * *




--------------------------------------------|
--------------------------------------------|
--------------------------------------------|
-9--------9--------9--------9--------9-8-8--|
-7--------7--------7--------7--------7\6-6--|
--------------------------------------------|


--------------------------------------------|
--------------------------------------------|
--------------------------------------------|
-9--------9--------9--------9-8-8--8-6-6----|
-7--------7--------7--------7\6-6--6\4-4----|
--------------------------------------------|


--------------------------------------------|
--------------------------------------------|
--------------------------------------------|
-9--------9--------9--------9--------9-8-8--|
-7--------7--------7--------7--------7\6-6--|
--------------------------------------------|


-------------------------------------------------|
-------------------------------------------------|
-------------------------------------------------|
-5-----------------6-5-6-------------------------|
-3-3-3-3-3-3-3-3-3-4-3-4-4-4-4-4-4-4-4-4-4-4-4-4-|
-------------------------------------------------|
   * * * * * * * *       * * * * * * * * * * * *






3:55
-----------------------------------------------------------------------------|
-----------------------------------------------------------------------------|
-----------------------------------------------------------------------------|
-11----11-11--11-11-11--10----10-10--10-10-8--7---7-7--7-7-7--7---7-7--7-7-7-|
-11-11-11-11--11-11-11--10-10-10-10--10-10-8--7-7-7-7--7-7-7--7-7-7-7--7-7-7-|
-9--9--9--9---9--9--9---8--8--8--8---8---8-6--5-5-5-5--5-5-5--5-5-5-5--5-5-5-|
                        

-----------------------------------------------------------------------------|
-----------------------------------------------------------------------------|
-----------------------------------------------------------------------------|
-11----11-11--11-11-11--10----10-10--10-10-8--7---7-7--7-7-7--8---8-8--8-8-8-|
-11-11-11-11--11-11-11--10-10-10-10--10-10-8--7-7-7-7--7-7-7--8-8-8-8--8-8-8-|
-9--9--9--9---9--9--9---8--8--8--8---8---8-6--5-5-5-5--5-5-5--6-6-6-6--6-6-6-|
                        

-----------------------------------------------------------------------------|
-----------------------------------------------------------------------------|
-----------------------------------------------------------------------------|
-11----11-11--11-11-11--10----10-10--10-10-8--7---7-7--7-7-7--7---7-7--7-7-7-|
-11-11-11-11--11-11-11--10-10-10-10--10-10-8--7-7-7-7--7-7-7--7-7-7-7--7-7-7-|
-9--9--9--9---9--9--9---8--8--8--8---8---8-6--5-5-5-5--5-5-5--5-5-5-5--5-5-5-|
                        

-----------------------------------------------------------------------------|
-----------------------------------------------------------------------------|
-----------------------------------------------------------------------------|
-11----11-11--11-11-11--10----10-10--10-10-8--7---7-7--7-7-7--8---8-8--8-8-8-|
-11-11-11-11--11-11-11--10-10-10-10--10-10-8--7-7-7-7--7-7-7--8-8-8-8--8-8-8-|
-9--9--9--9---9--9--9---8--8--8--8---8---8-6--5-5-5-5--5-5-5--6-6-6-6--6-6-6-|
                        

4:31

---------------------------------|
---------------------------------|
---------------------------------|
-6-6-6-6-6-6-6-6-6-6-6-6-6-6-6-6-|
---------------------------------|
---------------------------------|


---------------------------------------------------------------------------------|
---------------------------------------------------------------------------------|
---------------------------------------------------------------------------------|
-7-7-7-7-7-7-7-7-7-7-7-7-7-7-7-7-10-10-10-10-10-10-10-10-10-10-10-10-10-10-10-10-|
---------------------------------------------------------------------------------|
---------------------------------------------------------------------------------|

--------------------------------------------------------------------|
--------------------------------------------------------------------|
--------------------------------------------------------------------|
7-7-7-7-7-7-7-7-7-7-7-7-10-10-10-10-9-9-9-9-9-9-9-9-9-9-9-9-9-9-9-9-|
--------------------------------------------------------------------|
--------------------------------------------------------------------|

----------------------------------------------------------------|
-------------------------_______________________----------------|
-------------------------)| | | | | | | | | | |(----------------|
7-7-7-7-7-7-7-7-7-7-7-7-7-7-7-7-7-7-7-7-7-7-7-7-7-7-7-7-7-7-7-7-|
----------------------------------------------------------------|
----------------------------------------------------------------|


------------------------------|
------------------------------|
------------------------------|
10-10-10-10---------8--8--8---|
-8--8--8--8---------6--6--6---|
------------0-0-0-0-----------|
            * * * *



------------------------------------------------------------------------------------|
------------------------------------------------------------------------------------|
------------------------------------------------------------------------------------|
-7--7--7--7--7--7--7--7--7--7--7--7--10--10--10--10--10--10--10--10--10--10--10--10-|
------------------------------------------------------------------------------------|
------------------------------------------------------------------------------------|

-----------------------------------------------------------------------------------|
-----------------------------------------------------------------------------------|
-----------------------------------------------------------------------------------|
-7--7--7--7--7--7--7--7--7--7--7--7--10--10--10--10-9-9-9-9-9-9-9-9-9-9-9-9-9-9-9-9|
-----------------------------------------------------------------------------------|
-----------------------------------------------------------------------------------|


----------------------------------------------------------------|
-------------------------_______________________----------------|
-------------------------)| | | | | | | | | | |(----------------|
7-7-7-7-7-7-7-7-7-7-7-7-7-7-7-7-7-7-7-7-7-7-7-7-7-7-7-7-7-7-7-7-|
----------------------------------------------------------------|
----------------------------------------------------------------|


------------------------------|
------------------------------|
------------------------------|
10-10-10-10---------8--8--8---|
-8--8--8--8---------6--6--6---|
------------0-0-0-0-----------|
            * * * *








------------------------------------------------------------|
------------------------------------------------------------|
------------------------------------------------------------|
------------------------------------------------------------|
-5-4-4--7-5-5--8-7-7--8-7-8-7--5-4-4--7-5-5--8-7-7--8-7-8-7-|
-3-2-2--5-3-3--6-5-5--6-5-6-5--3-2-2--5-3-3--6-5-5--6-5-6-5-|

------------------------------------------------------------|
------------------------------------------------------------|
------------------------------------------------------------|
------------------------------------------------------------|
-5-4-4--7-5-5--8-7-7--8-7-8-7--5-4-4--7-5-5--8-7-7--8-7-8-7-|
-3-2-2--5-3-3--6-5-5--6-5-6-5--3-2-2--5-3-3--6-5-5--6-5-6-5-|

------------------------------------------------------------|
------------------------------------------------------------|
------------------------------------------------------------|
------------------------------------------------------------|
-5-4-4--7-5-5--8-7-7--8-7-8-7--5-4-4--7-5-5--8-7-7--8-7-8-7-|
-3-2-2--5-3-3--6-5-5--6-5-6-5--3-2-2--5-3-3--6-5-5--6-5-6-5-|

------------------------------------------------------------|
------------------------------------------------------------|
------------------------------------------------------------|
------------------------------------------------------------|
-5-4-4--7-5-5--8-7-7--8-7-8-7--5-4-4--7-5-5--8-7-7--8-7-8-7-|
-3-2-2--5-3-3--6-5-5--6-5-6-5--3-2-2--5-3-3--6-5-5--6-5-6-5-|




            
            
Suggest correction
Creating personal tab
Creating personal tab
You can edit any tab online and save it as your Personal.

You can edit, replace or remove any tab part or add personal notes – all changes will be seen only by you.

Personal tabs can be accessed anytime from any device, even offline.
Learn more »
Give kudos to tab author, rate the tab!
1 2 3 4 5
comments
print report bad tab
guest
You may want to rate the tab now too:
select rating
Wanna post a correction for this tab? Suggest correction