Oops, an error
Loading. Please wait.

The 13Th Caesar tab

3,594 views 1 this week
4 commentsread comments
1 2 3 4 5
1 last vote to show rating
add to favorites
×
Save as Personal and add changes to this tab that will be seen only by you. Learn more ›
×
You can save this tab as Personal to edit and correct it or add notes. All changes will be seen only by you. Learn more »
launch autoscroll
font size
0
reset
how to read this tab
guitar tuner
edit
Autoscroll
slow
fast
+/-
esc
set tempo
stop
Cradle of Filth
The 13th Caesar
Godspeed on the Devil's thunder


use the comments option for corrections/suggestions thanks!

v1.0 October 2008



(00:45) Riff A

d:-------------------------------------------------------------------|
A:-------------------------------------------------------------------|
F:-------------------------------------------------------------------|
C:-----------------------------------2-2-2-2-2-2-2-2-7--6--4-6-------|
G:---4-4-4-4-4-4-4-4-4-4-4-4-4-4-4-4-0-0-0-0-0-0-0-0-5--4--2-4-4-4---|
D:---2-2-2-2-2-2-2-2-2-2-2-2-2-2-2-2---------------------------2-2---|


d:-------------------------------------------------------------------|
A:-------------------------------------------------------------------|
F:-------------------------------------------------------------------|
C:-------------------------------9-9-9-9-9-9-9-9-7-7-7---------------|
G:---4-4-4-4-4-4-4-4-4-4-4-4-4-4-7-7-7-7-7-7-7-7-5-5-5-7-5-7-5-4-----|
D:---2-2-2-2-2-2-2-2-2-2-2-2-2-2-----------------------7-5-7-5-4-----|


d:-------------------------------------------------------------------|
A:-------------------------------------------------------------------|
F:-------------------------------------------------------------------|
C:-----------------------------------------------------------2-2-2---|
G:---4-4-4--4-4-4--4-4-4--4-4-4--4-4-4--4-4-4--4-4-4--4-4-4--0-0-0---|
D:---2-2-2--2-2-2--2-2-2--2-2-2--2-2-2--2-2-2--2-2-2--2-2-2----------|


d:-------------------------------------------------------------------|
A:-------------------------------------------------------------------|
F:-------------------------------------------------------------------|
C:--2-2-2--2-2-2--2-2-2--7--7--6--6--4s6-6---------------------------|
G:--0-0-0--0-0-0--0-0-0--5--5--4--4--2s4-4--4-4-4--4-4-4--4-4-4------|
D:------------------------------------------2-2-2--2-2-2--2-2-2------|


d:-------------------------------------------------------------------|
A:-------------------------------------------------------------------|
F:-------------------------------------------------------------------|
C:-------------------------------------------------------------------|
G:--4-4-4--4-4-4--4-4-4--4-4-4--4-4-4--7--7-7--7-7-7-5-5-8-----------|
D:--2-2-2--2-2-2--2-2-2--2-2-2--2-2-2--0--0-0--0-0-0-----------------|



(01:07) Riff B

d:-------------------------------------------------------------------|
A:-------------------------------------------------------------------|
F:-------------------------------------------------------------------|
C:---2-2-2-2-2-2-2-2-2-2-2-2-5-5-5-5-2-2-2-2-2-2-2-2-5-5-5-5-4-4-4-4-|
G:-------------------------------------------------------------------|
D:-------------------------------------------------------------------|


d:-------------------------------------------------------------------|
A:------------------------------------------6-6-6-6------------------|
F:--------------------------------------------------4-4-4-4----------|
C:----------------------------------------------------------3-3-3-3--|
G:--3-3-3-3-3-3-3-3-3-3-3-3-2-2-2-2-2-2-2-2--------------------------|
D:-------------------------------------------------------------------|


d:-------------------------------------------------------------------|
A:-------------------------------------------------------------------|
F:-------------------------------------------------------------------|
C:--2-2-2-2-2-2-2-2-2-2-2-2-5-5-5-5-2-2-2-2-2-2-2-2-5-5-5-5-4-4-4-4--|
G:-------------------------------------------------------------------|
D:-------------------------------------------------------------------|


d:-------------------------------------------------------------------|
A:--------------------------------------------------------7--6-------|
F:--------------------------------------------2---5-4---4------4-----|
C:------------------------------------------5---3-----3--------------|
G:--3-3-3-3-3-3-3-3-3-3-3-3-2-2-2-2-2-2-2-2--------------------------|
D:-------------------------------------------------------------------|
                                          |                          |
                                          |--------------------------|
                                          |---------------10-9-------|
                                          |-------8-7---7------7-----|
                                          |-5-7-6-----6--------------|
                                          |--------------------------|
                                          |--------------------------|


d:-------------------------------------------------------------------|
A:-------------------------------------------------------------------|
F:-------------------------------------------------------------------|
C:---2-2-2-2-2-2-2-2-2-2-2-2-5-5-5-5-2-2-2-2-2-2-2-2-5-5-5-5-4-4-4-4-|
G:-------------------------------------------------------------------|
D:-------------------------------------------------------------------|


d:-------------------------------------------------------------------|
A:-------------------------------------------------------------------|
F:-------------------------------------------------------------------|
C:--------------------------3-3-3-3-6-6-6-6-5-5-5-5-3-3-5-5----------|
G:--3-3-3-3-3-3-3-3-3-3-3-3------------------------------------------|
D:-------------------------------------------------------------------|


d:-------------------------------------------------------------------|
A:-------------------------------------------------------------------|
F:-------------------------------------------------------------------|
C:---2-2-2-2-2-2-2-2-2-2-2-2-5-5-5-5-2-2-2-2-2-2-2-2-5-5-5-5-4-4-4-4-|
G:-------------------------------------------------------------------|
D:-------------------------------------------------------------------|


d:-------------------------------------------------------------------|
A:-------------------------------------------------------------------|
F:-------------------------------------------------------------------|
C:--------------------------3-3-3-3-8-8-8-8-7-7-7-7-5-5-7-7----------|
G:--3-3-3-3-3-3-3-3-3-3-3-3------------------------------------------|
D:-------------------------------------------------------------------|



(01:30) Riff C

d:-------------------------------------------------------------------|
A:-------------------------------------------------------------------|
F:o------------------------------------------------------------------|
C:o------------------------------------------------------------------|
G:---5--5-5-5--5-5-4-5-5-5s7s8--5--5-5-5--5-5--7-8-5-8--5--5-5-5-----|
D:---3--3-3-3--3-3-2-3-3-3s5s6--3--3-3-3--3-3--5-6-3-6--3--3-3-3-----|


d:-------------------------------------------------------------------|
A:-------------------------------------------------------------------|
F:---------------------------7-9-10---------------------------------o|
C:------------------------------------------------------------------o|
G:--5-5--4-5-5-5s7s8---------5-7-8-----------------------------------|
D:--3-3--2-3-3-3s5s6-5-8-4-7-----------------------------------------|



(01:52) Riff D

d:-------------------------------------------------------------------|
A:-------------------------------------------------------------------|
F:o-----------------------------------------------------------------o|
C:o----------8--7----5--3----------8----------3---------------------o|
G:---5----3--6--5----3--1--5----3--6--5----3--1----------------------|
D:---3----1----------------3----1-----3----1-------------------------|



(02:15) kick starting chorus

d:-------------------------------------------------------------------|
A:-------------------------------------------------------------------|
F:-------------------------------------------------------------------|
C:-------------------------------------------------------------------|
G:---4-4-4-4-4-4-4-4-------------------------------------------------|
D:---2-2-2-2-2-2-2-2-------------------------------------------------|



(03:47) Riff E

d:-------------------------------------------------------------------|
A:-------------------------------------------------------------------|
F:-------------------------------------------------------------------|
C:---------------------------2-2-2-2-3-3-3-3-3-3-3-3---------5-5-5-5-|
G:---0-0-0-0-0-0-0-0-0-0-0-0-------------------------3-3-3-3---------|
D:-------------------------------------------------------------------|
 |                                                                   |
d:-------------------------------------------------------------------|
A:-------------------------------------------------------------------|
F:-----------------------------------------------------------3-3-3-3-|
C:---7-7-7-7-7-7-7-7-7-7-7-7-5-5-5-5-7-7-7-7-7-7-7-7-3-3-3-3---------|
G:-------------------------------------------------------------------|
D:-------------------------------------------------------------------|


d:-------------------------------------------------------------------|
A:-------------------------------------------------------------------|
F:-------------------------------------------------------------------|
C:--------------------------2-2-2-2-3-3-3-3--3--3--3--3--------------|
G:--0-0-0-0-0-0-0-0-0-0-0-0------------------1--1--1--1--------------|
D:-------------------------------------------------------------------|
 |                                                                   |
d:-------------------------------------------------------------------|
A:-------------------------------------------------------------------|
F:-------------------------------------------------------------------|
C:--7-7-7-7-7-7-7-7-7-7-7-7-5-5-5-5-7-7-7-7--8--8--8--8--------------|
G:-------------------------------------------------------------------|
D:-------------------------------------------6--6--6--6--------------|


d:-------------------------------------------------------------------|
A:-------------------------------------------------------------------|
F:-------------------------------------------------------------------|
C:---------------------------2-2-2-2-3-3-3-3-3-3-3-3---------5-5-5-5-|
G:---0-0-0-0-0-0-0-0-0-0-0-0-------------------------3-3-3-3---------|
D:-------------------------------------------------------------------|
 |                                                                   |
d:-------------------------------------------------------------------|
A:-------------------------------------------------------------------|
F:-----------------------------------------------------------3-3-3-3-|
C:---7-7-7-7-7-7-7-7-7-7-7-7-5-5-5-5-7-7-7-7-7-7-7-7-3-3-3-3---------|
G:-------------------------------------------------------------------|
D:-------------------------------------------------------------------|


d:-------------------------------------------------------------------|
A:-------------------------------------------------------------------|
F:-------------------------------------------------------------------|
C:--------------------------2-2-2-2-3-3-3-3--8-----------------------|
G:--0-0-0-0-0-0-0-0-0-0-0-0------------------6--5-6-5-3--------------|
D:-------------------------------------------------------------------|
|                                                                    |
d:-------------------------------------------------------------------|
A:-------------------------------------------------------------------|
F:-------------------------------------------------------------------|
C:--7-7-7-7-7-7-7-7-7-7-7-7-5-5-5-5-7-7-7-7--5--3-5-3----------------|
G:----------------------------------------------------6--------------|
D:-------------------------------------------------------------------|




            
            
Suggest correction
Creating personal tab
Creating personal tab
You can edit any tab online and save it as your Personal.

You can edit, replace or remove any tab part or add personal notes – all changes will be seen only by you.

Personal tabs can be accessed anytime from any device, even offline.
Learn more »
Give kudos to tab author, rate the tab!
1 2 3 4 5
comments
print report bad tab
4 comments total. Showing first comments.
+2 reply
CoBRaGe 25 Nov 05, 2008 12:50 AM

Really nice tab and it's pretty accurate too, I've been waiting for someone to tab the new songs thanks alot!

0 reply
MaGGoTMaxPower 10 Dec 15, 2009 09:46 AM

D or C tuning???

0 reply
jazzza_s 10 Feb 10, 2010 06:01 PM

drop D ftw?

guest
You may want to rate the tab now too:
select rating
Wanna post a correction for this tab? Suggest correction