Oops, an error
Loading. Please wait.

Tonight In Flames bass

version 2
version 2

Whole song

Interactive

1,431 views 1 this week
4 commentsread comments
1 2 3 4 5
x 4
add to favorites
×
Save as Personal and add changes to this tab that will be seen only by you. Learn more ›
×
You can save this tab as Personal to edit and correct it or add notes. All changes will be seen only by you. Learn more »
launch autoscroll
font size
0
reset
guitar tuner
backing track
0:00
0:00
edit
Autoscroll
slow
fast
+/-
esc
set tempo
stop
================================================================================
                          C R A D L E   O F   F I L T H

                                       -

                         T O N I G H T   I N   F L A M E S
================================================================================


                                  THORNOGRAPHY
                          (c) Roadrunner Records - 2006
                          http://www.cradleoffilth.com/


                             Tune down one full step
                                    D G  C F


                                 Tempo = 166 BPM
                              Time Signature = 4/4


                          -----------------------------
                                 Transcribed by

                                 PADDY MCMULLAN
                           stinkypoohpants@yahoo.co.uk

                                   Version 1.0
                               18th November 2008
                             -----------------------

                             Tablature Symbols Used:


 p         -  Pull-Off
 h         -  Hammer-On
 (/)       -  Legato Slide (Blank space indicates length of slide)
 \         -  Slide Down to/Down From (Blank space indicates length of slide)
 /         -  Slide Up To/Up From (Blank space indicates length of slide)
 ( )       -  Ghost Note/Tied Note/Implied Note
 REST      -  Rest and sustain rest for duration of blank space
 3b4       -  Bend
 3b4r3     -  Bend and Release



================================================================================
Intro: Play 4 times
================================================================================


                                          * 3/4 bend
||-----------------------|-------------------------|
||-----------------------|-------------------------|
||-----------------------|----------------*--------|
||--0----0--0----0--0----|--1----1----1--3b r3--1--|


|-----------------------|-------------------------| |
|-----------------------|-------------------------|*|
|-----------------------|-------------3-----------|*|
|--0----0--0----0--0----|--1----1--1-----4--1--3--| |



================================================================================
Riff 1: Play 4 times
================================================================================


||------------------------|--------------------------| |
||------------------------|--------------------------|*|
||------------------------|--------------------------|*|
||--2----2--2----2--2--2--|--1----1--1--0 h 1--1--3--| |



================================================================================
Verse: Play twice [ Tempo = 170 BPM ]
================================================================================


||--------------------------|-------------------------|
||--------------------------|-------------------------|
||--7--5--------------------|--7--5-----7--8----8--7--|
||--------0--0--0--0--0--0--|--------0----------------|


|--------------------------|--------------------------|
|--------------------------|--------------------------|
|--7--5--------------------|--8--7-----8--10----8--7--|
|--------0--0--0--0--0--0--|--------0-----------------|


|--------------------------|-------------------------|
|--------------------------|-------------------------|
|--7--5--------------------|--7--5-----7--8----8--7--|
|--------0--0--0--0--0--0--|--------0----------------|


|--------------------------|----------------------------| |
|--------------------------|----------------------------|*|
|--7--5--------------------|-----------10----10--10--8--|*|
|--------0--0--0--0--0--0--|--8--7--0-------------------| |



================================================================================
Pre-Chorus: Play once
================================================================================

  1                          2
||--------------------------|--------------------------|
||--------------------------|--------------------------|
||--5--5--5--5--5--5--5--5--|--5--5--5--5--5--5--5-----|
||--------------------------|-----------------------8--|

 3                          4
|--------------------------|--------------------------|
|--------------------------|--------------------------|
|--------------------------|--------------------------|
|--6--6--6--6--6--6--6--5--|--3--3--3--3--3--3--3--5--|

 5                          6
|--------------------------|--------------------------|
|--------------------------|--------------------------|
|--5--5--5--5--5--5--5--5--|--5--5--5--5--5--5--5-----|
|--------------------------|-----------------------8--|

 7                        8
|------------------------|--------------------------|
|------------------------|--------------------------|
|------------------------|--3--3--3--3--3--0--3--5--|
|--3--3--3--3--3----3----|--------------------------|

 9                          10
|--------------------------|--------------------------|
|--------------------------|--------------------------|
|--5--5--5--5--5--5--5--5--|--5--5--5--5--5--5--5-----|
|--------------------------|-----------------------8--|

 11                         12
|--------------------------|--------------------------|
|--------------------------|--------------------------|
|--------------------------|--------------------------|
|--6--6--6--6--6--6--6--5--|--3--3--3--3--3--3--3--5--|

 13                         14
|--------------------------|--------------------------|
|--------------------------|--------------------------|
|--5--5--5--5--5--5--5--5--|--5--5--5--5--5--5--5-----|
|--------------------------|-----------------------8--|

 15                         16
|--------------------------|----------------------------||
|--------------------------|----------------------------||
|--------------------------|----------------------------||
|--6--6--6--6--6--6--6--5--|--0--0--0-0-0--0--0--0-0-0--||



================================================================================
Chorus: Play once [ Tempo = 85 BPM ]
================================================================================


||------------------------------|------------------------------|
||------------------------------|------------------------------|
||--7--7-7-7--7-7-7--7-7-7--7-5-|------------------------------|
||------------------------------|--3--3-3-3--3-3-3--3-3-3--2-3-|


|------------------------------|--------------------------------|
|------------------------------|--------------------------------|
|------------------------------|--------------------------------|
|--8--8-8-8--8-8-8--8-8-8--8-7-|--5--5-5-5--0-0-5--5--5p 3-5p 3-|


|------------------------------|------------------------------|
|------------------------------|------------------------------|
|------------------------------|------------------------------|
|--0--0-0-0--0-0-0--0-0-0--0-2-|--3--3-3-3--3-3-3--3-3-3--2-3-|


|------------------------------|--------------------------------||
|------------------------------|--------------------------------||
|------------------------------|--------------------------------||
|--8--8-8-8--8-8-8--8-8-8--8-7-|--5--5-5-5--0-0-5--5--5p 3-5p 3-||



================================================================================
Play the Verse riff twice
================================================================================

================================================================================
Play the Pre-Chorus once
================================================================================

================================================================================
Play the Chorus once [ Tempo = 86 BPM ]
================================================================================

================================================================================
Play Riff 1 four times, ending on the following [ Tempo = 166 BPM ]
================================================================================


||-----------||
||-----------||
||--5--------||
||-----------||



[ Tempo = 170 BPM ]



================================================================================
Rest for 31 bars
================================================================================

================================================================================
Segue
================================================================================


* Let notes ring wherever possible *

||--------7----------7----|--------4----------3----||
||-----7----------7-------|-----4----------3-------||
||--5----------5----------|--2----------1----------||
||------------------------|------------------------||



================================================================================
Play the Intro riff 4 times
================================================================================

================================================================================
Play Riff 1 four times
================================================================================

================================================================================
Play the Verse riff twice
================================================================================

================================================================================
Play the Pre-Chorus once
================================================================================

================================================================================
Play the Chorus once [ Tempo = 85 BPM ]
================================================================================

================================================================================
Outro: Play once
================================================================================


||----------------------------------|----------------------------------|
||----------------------------------|----------------------------------|
||----------------------------------|----------------------------------|
||--0-0-0-0-0-0-0-0-0-0-0-0-0-0-0-0-|--3-3-3-3-3-3-3-3-3-3-3-3-3-3-3-3-|


|----------------------------------|----------------------------------|
|----------------------------------|----------------------------------|
|----------------------------------|----------------------------------|
|--8-8-8-8-8-8-8-8-8-8-8-8-8-8-7-7-|--5-5-5-5-5-5-5-0-5-5-5-5-5-3-5-3-|


|------------------------------------------------------------------|
|------------------------------------------------------------------|
|------------------------------------------------------------------|
|--0-0-0-0-0-0-0-0-0-0-0-0-0-0-0-0-0-0-0-0-0-0-0-0-0-0-0-0-0-0-0-0-|


|--------------------------------------------------------------------|
|--------------------------------------------------------------------|
|--------------------------------------------------------------------|
|--3-3-3-3-3-3-3-3-3-3-3-3-3-3-3-3-3-3-3-3-3-3-3-3-3-3-3-3-3-(3/5/7)-|


|------------------------------------------------------------------|
|------------------------------------------------------------------|
|------------------------------------------------------------------|
|--8-8-8-8-8-8-8-8-8-8-8-8-8-8-8-8-8-8-8-8-8-8-8-8-8-8-8-8-7-7-0-0-|


|-----------------------------------|---------------------||
|-----------------------------------|---------------------||
|-----------------------------------|--7--   \------------||
|--5-5-5-5-5-5-5-(0/5)-5-5-5-5-3-5--|--0--   -------------||



================================================================================
End
================================================================================


Tab summary:        Intro x 4
                    Riff 1 x 4
                    Verse x 2
                    Pre-Chorus x 1
                    Chorus x 1
                    Verse x 2
                    Pre-Chorus x 1
                    Chorus x 1
                    Riff 1 x 4
                    Segue x 1
                    Intro x 4
                    Riff 1 x 4
                    Verse x 2
                    Pre-Chorus x 1
                    Chorus x 1
                    Outro x 1
                    
                    END

            
            
Suggest correction
Creating personal tab
Creating personal tab
You can edit any tab online and save it as your Personal.

You can edit, replace or remove any tab part or add personal notes – all changes will be seen only by you.

Personal tabs can be accessed anytime from any device, even offline.
Learn more »
comments
print report bad tab
4 comments total. Showing first comments.
0 reply
metallo 336 Feb 27, 2009 03:18 AM

the prechorus

0 reply
paddyirishman 7,750 Feb 27, 2009 04:04 AM

What's wrong with it?

0 reply
Michael_Hicks 10 Dec 10, 2009 04:21 AM

I think cof use 5-strings, altho I don't think anything is played on the b string anyway in this song

5*

guest
You may want to rate the tab now too:
select rating
Wanna post a correction for this tab? Suggest correction