Oops, an error
Loading. Please wait.

We Hate You Please Die bass

version 1
version 1

Whole song

18,478 views 15 this week
1 commentread comment
1 2 3 4 5
x 4
add to favorites
×
Save as Personal and add changes to this tab that will be seen only by you. Learn more ›
×
You can save this tab as Personal to edit and correct it or add notes. All changes will be seen only by you. Learn more »
launch autoscroll
font size
0
reset
guitar tuner
edit
Autoscroll
slow
fast
+/-
esc
set tempo
stop
Author
Difficulty
-----------------------------------------------------------------------------
			     WE HATE YOU PLEASE DIE - Crash and the Boys
-----------------------------------------------------------------------------

Tabbed By : Holmesymcgee
e-mail: jwilliamholmes@gmail.com

Okay, this is my first shot at a tab. so..cut me some slack, eh? Got any comments, 
or anything, just let me know. It's a pretty rough job, so I'm sure there are some mistakes.
Tuning: Standard (E,A,D,G)

G|--------------|-----------------------------------|-----------------------|
D|------4------4|-----------------------------------|--x3-------------------|
A|--------------|-2h4-4-4------2h4-4-4--0-0-4-2-2---|-----------------------|
E|--2------2----|----------2-2----------------------|-----------------------|

Key Change
G|----------|------------------------------|--------------------------------|
D|----------|------------------------------|--x3----------------------------|
A|----------|-3h5-3-3-----3h5-3-3-1-1-5-3-3|--------------------------------|
E|--2-2-3-3-|---------3-3------------------|--------------------------------|

Okay, I'm afraid I don't have the ending down, but this is the majority of the song. 
and please, if I screwed up, make the corrections in the comments, it'll be much appreciated.

| /  slide up
| \  slide down
| h  hammer-on
| p  pull-off
| ~  vibrato
| +  harmonic
| x  Mute note
===============================================================================

            
            
Suggest correction
Creating personal tab
Creating personal tab
You can edit any tab online and save it as your Personal.

You can edit, replace or remove any tab part or add personal notes – all changes will be seen only by you.

Personal tabs can be accessed anytime from any device, even offline.
Learn more »
comments
print report bad tab
1 comment total.
0 reply
Zaft 10 Dec 19, 2010 07:55 PM

I think there should be 4 hammer ons instead of 1 in the beginning. I just started playing bass so if you think this is wrong please tell me why, I'd really appreciate the feedback.

guest
You may want to rate the tab now too:
select rating
Wanna post a correction for this tab? Suggest correction